» » »

Scream From The Abyss Tabs (ver.1)

Artists:  A B C D E F G H I J K L M N O P Q R S T U V W X Y Z # 

Scream From The Abyss Tabs (ver.1)

Caliban
Rating:
0/5 (0 votes)

Hard to play? Try these video lessons and learn fast.
                
 
Tuning: standard for clean part              PLEASE RATE AND COMMENT!!
        drop d for rest of song    LISTEN TO SONG FOR TIMINGS!!

   Intro (clean)  (standard tuning)
e|--------------------------------------------------------|
B|--------------------------------------------------------|
G|--------------------------------------------------------|
D|---7----5----8----7----5----5----8----6---7---5---6--5--|   X2
A|--7-7--5-5--8-8--7-7--5-5--5-5--8-8--6---7---5---6------|
E|-5----5----6----5----5----5----6----6---5---5---4---5---|

  Main song (distortion) (drop d)
e|---------------------------------------------|
B|---------------------------------------------|
G|---------------------------------------------|
D|-00-7p5-00-8p7p5-00-7p5-00-8p7p5--------5h7--|  X4
A|-00-----00-------00-----00-------8p7ph8------|
D|-00-----00-------00-----00-------------------|
   ..     ..       ..     .. 
e|-----------------------------------------------------------------|
B|-----------------------------------------------------------------|
G|-----------------------------------------------------------------|
D|-00002-00002-00003-00005-003-005-22223-22223-22225-22226-225-226-| X4
A|-00002-00002-00003-00005-003-005-22223-22223-22225-22226-225-226-|
D|-00002-00002-00003-00005-003-005-22223-22223-22225-22226-225-226-|
   ....  ....  ....  ....  ..  ..  ....  ....  ....  ....  ..  ..

e|------------------------------------------------------------------|
B|------------------------------------------------------------------|
G|------------------------------------------------------------------|
D|-0000000000000000333333333333333300000000000000003333333333333333-|
A|-0000000000000000333333333333333300000000000000003333333333333333-|
D|-0000000000000000333333333333333300000000000000003333333333333333-|
   ................................................................

e|------------------------------|
B|------------------------------|
G|----9-----9p7----9---9^p7^----|
D|-00---000-----00---0----------|
A|-00---000-----00---0----------|
D|-00---000-----00---0----------|
   ..   ...     ..   .
e|-----------------------------------------------------------------|
B|-----------------------------------------------------------------|
G|-----------------------------------------------------------------|
D|-00002-00002-00003-00005-003-005-22223-22223-22225-22226-225-226-| X4
A|-00002-00002-00003-00005-003-005-22223-22223-22225-22226-225-226-|
D|-00002-00002-00003-00005-003-005-22223-22223-22225-22226-225-226-|
   ....  ....  ....  ....  ..  ..  ....  ....  ....  ....  ..  ..

e|-------------------------------------------------------|
B|-------------------------------------------------------|
G|-9-9-7-7---10-10-9-9-7-7-7---9-9-7-7---10-10-9-9-7-5-7-|
D|-x-x-x-x----x--x-x-x-x-x-x---x-x-x-x----x--x-x-x-x-x-x-|  X5
A|-7-7-5-5----8--8-7-7-5-5-5---7-7-5-5----8--8-7-7-5-3-5-|
D|-------------------------------------------------------|


e|----------------------|
B|----------------------|
G|-9-9-7-7--------------|
D|-x-x-x-x-000000000000-|
A|-7-7-5-5-000000000000-|
D|---------000000000000-|
           ............
e|---------------------------------------------|
B|---------------------------------------------|
G|----9-7-----10-9-7----9-7-----10-9-7-5-4-5-7-|
D|-00-x-x-000--x-x-x-00-x-x-000--x-x-x-x-x-x-x-|
A|-00-7-5-000--8-7-5-00-7-5-000--8-7-5-3-2-3-5-|
D|-00-----000--------00-----000----------------|
   ..     ...        ..     ...
e|------------------------------------------------------------------|
B|------------------------------------------------------------------|
G|------------------------------------------------------------------|
D|-0000000000000000333333333333333300000000000000003333333333333333-|
A|-0000000000000000333333333333333300000000000000003333333333333333-|
D|-0000000000000000333333333333333300000000000000003333333333333333-|
   ................................................................
e|-----------------------------------------------------------------|
B|-----------------------------------------------------------------|
G|-----------------------------------------------------------------|
D|-00002-00002-00003-00005-003-005-22223-22223-22225-22226-225-226-| X4
A|-00002-00002-00003-00005-003-005-22223-22223-22225-22226-225-226-|
D|-00002-00002-00003-00005-003-005-22223-22223-22225-22226-225-226-|
   ....  ....  ....  ....  ..  ..  ....  ....  ....  ....  ..  ..
e|---|
B|---|
G|---|
D|-0-|  Play this chord many times at different speeds
A|-0-|   and vary how many times your strum it!!
D|-0-|

e|----------------------------|
B|----------------------------|
G|----9-----9p7----9---9^p7^--|
D|-00---000-----00---0--------|  X8   end on  D--0~~~~
A|-00---000-----00---0--------|               A--0~~~~
D|-00---000-----00---0--------|               D--0~~~~
   ..   ...     ..   .
            
Hard to play? Try these video lessons and learn fast. | Correct




comments powered by Disqus
↑ Back to top | Tablatures and chords are parodies/interpretations of the original songs. You may use it for private study, scholarship, research or language learning purposes only