>
 >
Nothing Is Forever

Nothing Is Forever Guitar Tabs

Caliban - Nothing Is Forever chords, tabs, tablatures, lyrics

Guitar lessons | Add/correct | Request | Top 50 tabs Artists:  A B C D E F G H I J K L M N O P Q R S T U V W X Y Z 0-9

Nothing Is Forever Guitar Tabs – Caliban

CD, Sheet music, Poster

Do you like Nothing Is Forever? Share with your friends now
Bass TabsBass Tabs v2Tabs
This is my first tab, no-one had tabbed this song so i decided to give it a go myself, 

Artist : Caliban
Song Title : Nothing is Forever

Tuning : (Drop C)CGCFAD

Intro

D-|--------------------------------------------------------------|
A-|--------------------------------------------------------------|
F-|-333333333333-99999999-10101010101010-------------------------|
C-|-333333333333-99999999-10101010101010-------------------------|
G-|-111111111111-77777777-8-8-8-8-8-8-8--------------------------|
C-|--------------------------------------------------------------|

Verse riff 1
 PM---|      PM---|      PM        PM--|     PM-----------------------|  PM  PM  PM
D-|-------------------------------------------------------------------|
A-|-------------------------------------------------------------------|
F-|-------------------------------------------------------------------|
C-|-----3-5-7-------3-5-5---3-5-7-5-----3-5-7-------3---2---5---3-5---|
G-|-------------------------------------------------------------------|
C-|-0-0-------0-0-0-------0---------0-0-------0-0-0---0---0---0-------|

  PM---|     PM---|      PM        PM--|     PM-----------------------|  PM  PM  PM
D-|-------------------------------------------------------------------|
A-|-------------------------------------------------------------------|
F-|-------------------------------------------------------------------|
C-|-----3-5-7-------3-5-5---3-5-7-5-----5-8-7-------3---2---5---3-5---|
G-|-------------------------------------------------------------------|
C-|-0-0-------0-0-0-------0---------0-0-------0-0-0---0---0---0-------|

(repeat x2) then

Verse riff 2
Guitar I
                            PM-|  PM  PM----|   PM
D-|--------------------------------------------------|
A-|--------------------------------------------------|
F-|--------------------------------------------------|
C-|--------------------------------------------------|
G-|-----8-5-7--------12-8-10-----8---7--------10---8-|
C-|-0-0-------00-0-0---------8-8---8---88-7-7----7---|

Guitar II
                            PM-|  PM  PM----|   PM
D-|--------------------------------------------------|
A-|--------------------------------------------------|
F-|--------------------------------------------------|
C-|-----7-3-5--------10-7-8------7---5--------8----7-|
G-|--------------------------------------------------|
C-|-0-0-------00-0-0---------8-8---8---88-7-7----7---|

(repeat 2x)
then

Pre-Chorus : Repeat Verse Riff 1 (1X)
then

Chorus:
Guitar 1

D-|--------------------------------------------------|
A-|--------------------------------------------------|
F-|-333333333333333333333333-77777777777777777777777-|
C-|-333333333333333333333333-77777777777777777777777-|
G-|-111111111111111111111111-55555555555555555555555-|
C-|--------------------------------------------------|

Guitar 2 (this isn't exact, but as close as i could get it)

D-|--------------------------------------------------|
A-|--------------------------------------------------|
F-|--------------------------------------------------|
C-|-7-5h7-----7-5h7p5-----7-5h7-----7-5h7p5----------|
G-|-------7-----------7---------7-----------7--------|
C-|--------------------------------------------------|

D-|--------------------------------------------------|
A-|--------------------------------------------------|
F-|------------------------------7-5-----------------|
C-|-7-5h7-----7-5h7p5-----7-5h7------8-7-8-----------|
G-|-------7-----------7------------------------------|
C-|--------------------------------------------------|

(repeat x2) then repeat Verse Riff 2 (2x) then

Guitar I

D-|--------------------------------------------------|
A-|--------------------------------------------------|
F-|--------------------------------------------------|
C-|-0~~----------------------------------------------|
G-|-0~~----------------------------------------------|
C-|-0~~----------------------------------------------|

Guitar II (Clean)

D-|-----------------------------------------------------|
A-|-------------3~-----------5~------5~-6-5-------------|
F-|-----5~----5---5-------------------------5~----------|
C-|---3-----3-------3~-----3-------3--------------------|
G-|-5-----5--------------5-------5----------------------|
C-|-----------------------------------------------------|

D-|-----------------------------------------------------|
A-|-------------3~-----------5~------5~-6-5-------------|
F-|-----5~----5---5-------------------------5~----------|
C-|---3-----3-------3~-----3-------3--------------------|
G-|-1-----1--------------5-------5----------------------|
C-|-----------------------------------------------------|

then Guitar I

D-|-----------------------------------------------------|
A-|-----------------------------------------------------|
F-|------------------------333333333333333-777777777777-|
C-|------------------------333333333333333-777777777777-|
G-|-/////////////----------111111111111111-555555555555-|
C-|-/////////////pickslide------------------------------|

D-|-----------------------------------------------------|
A-|-----------------------------------------------------|
F-|-33333333333333333333333-777777777777777777777777----|
C-|-33333333333333333333333-777777777777777777777777----|
G-|-11111111111111111111111-555555555555555555555555----|
C-|-----------------------------------------------------|

then repeat chorus

repeat Verse Riff 1

except Guitar 2 plays
   PM-----|   PM
D-|-----------------------------------------------------|
A-|-----------------------------------------------------|
F-|-----------------------------------------------------|
C-|-00--000---00----------------------------------------|
G-|-00--000---00-----///////////////////////////--Slide-|
C-|-00--000---00-----///////////////////////////Pick----|

then joins in with Guitar I with Verse Riff 1

then repeat Verse Riff 2, but on second time round Guitar II plays
                                        end on this
D-|---------------------------------|--------------------|
A-|---------------------------------|--------------------|
F-|---------------------------------|--------------------|
C-|---------------------------------|--------------------|
G-|---------------------------------|--10-8-7h8----------|
C-|-0-0--0-0--8-8----0-0--0-0--8-8--|--------------------|
                                    Guitar I ends on this
D-|---------------------------------|--------------------|
A-|---------------------------------|--------------------|
F-|---------------------------------|--------------------|
C-|---------------------------------|--------------------|
G-|---------------------------------|---8-7-5h7----------|
C-|---------------------------------|--------------------|

Cheers

| /  slide up
| \  slide down
| h  hammer-on
| p  pull-off
| ~  let ring
| +  harmonic
| x  Mute note





Comments


Popular Caliban tabs & chords
Certainty Corpses Bleed Cold Bass Tabs
Fire Of Night 1 Bass Tabs
Dark Shadows 1 Tabs
Deadly Dream Tabs
Exit Tabs
Memorial Tabs
My Fiction Beauty Tabs
My Little Secret Tabs
This Oath Tabs
Tyranny Of Small Misery Tabs


Song lyrics



↑ Back to top | Tablatures and chords are parodies/interpretations of the original songs. You may use it for private study, scholarship, research or language learning purposes only
© 2014 AZChords.com Contact us | Privacy policy | DMCA | Add/correct tabs | Request tabs | Top 50 tabs