» » »

Caliban, Nothing Is Forever Bass tabs (ver.1)

Artists:  A B C D E F G H I J K L M N O P Q R S T U V W X Y Z # 

Nothing Is Forever Bass tabs (ver.1)

Caliban Tabs
 Rating:
4/5 (4 votes)
Nothing Is Forever lessons Tabs too difficult? Try these video lessons and learn fast
                

Tuning: CGCF
  Intro:
F|---------------------------------------------------------------------------|
C|---------------------------------------------------------------------------|
G|11111111111111-----7777777788888888----------------------------------------|
C|---------------------------------------------------------------------------|
  Verse: 1
F|---------------------------------------------------------------------------|
C|---3-5-7---3-5-5---3-5-7-5--3-5-7--3--2--5--35-----------------------------|
G|---------------------------------------------------------------------------|
C|00------000-----000-------00------0--0--0--0-------------------------------|

F|---------------------------------------------------------------------------|
C|---3-5-7---3-5-5---3-5-7-5--5-7-8--3--2--5--35-----------------------------|
G|---------------------------------------------------------------------------|
C|00------000-----000-------00------0--0--0--0-------------------------------| x2
  Verse: 2
F|---------------------------------------------------------------------------|
C|---8-5-7---12-8-10---------------------------------------------------------|
G|---------------------------------------------------------------------------|
C|00------000----------8888--7777--------------------------------------------|
x4
Repeat Verse: 1 x1
  Chorus
F|---------------------------------------------------------------------------|
C|---------------------------------------------------------------------------|
G|1111111111111111111--55555555555555555555----------------------------------|
C|---------------------------------------------------------------------------|
x2
Repeat Verse: 2 x4
  Bridge
F|---------------------------------------------------------------------------|
C|---------------------------------------------------------------------------|
G|---------------------------------------------------------------------------|
C|0~-------------------------------------------------------------------------|

F|---------------------------------------------------------------------------|
C|---------------------------------------------------------------------------|
G|-----11111111111111111111111----555555555555555555555----------------------|
C|12/------------------------------------------------------------------------|
x2
Repeat Chorus x2
F|--------------------------------------------------------------------------------------|
C|--------------------------------------------------------------------------------------|
G|--------------------------------------------------------------------------------------|
C|00-----000------00-----12/------------------------------------------------------------|
Repeat Verse: 1 x 3
Repeat Verse: 2 x 2
F|---------------------------------------------------------|
C|---------------------------------------------------------|
G|---------------------------------------------------------|
C|00-----000------00-----00---000-----00----00--00------0--|

| /  slide up
| \  slide down
| h  hammer-on
| p  pull-off
| ~  vibrato
| +  harmonic
| x  Mute note
            
Submit corrections

comments powered by Disqus
↑ Back to top | Caliban Bass for Nothing Is Forever. Lyrics for acoustic guitar and electric guitar. Tablatures and chords are parodies/interpretations of the original songs. You may use it for private study, scholarship, research or language learning purposes only