» » »

Caliban, My Little Secret Tabs (ver.1)

Artists:  A B C D E F G H I J K L M N O P Q R S T U V W X Y Z # 

My Little Secret Tabs (ver.1)

Caliban Tabs
Rating:
0/5 (0 votes)
My Little Secret lessons Tabs too difficult? Try these video lessons and learn fast
                Please make a comment with the 2cond guitar chorus if you figure it out!

Intro:
Guitar 1
d||------------------------------------------------||
a||------------------------------------------------||
f||------------------------------------------------||
c||---7-7-7-7\2-2-2-2/6-6-6-6\3-3-3-3/-------------||x4
g||---x-x-x-x\x-x-x-x/x-x-x-x\x-x-x-x/-------------||
C||---5-5-5-5\0-0-0-0/4-4-4-4\1-1-1-1/-------------||
Guitar 1
d||------------------------------------------------||
a||------------------------------------------------||
f||------------------------------------------------||
c||---7-7-7-7\2-2-2-2/6-6-6-6\3-3-3-3/-------------||x6(Here the rythm 
g||---x-x-x-x\x-x-x-x/x-x-x-x\x-x-x-x/-------------||     changes)
C||---5-5-5-5\0-0-0-0/4-4-4-4\1-1-1-1/-------------||
Guitar 2
d||----------------------------------------------------||
a||----------------------------------------------------||
f||----------------------------------------------------||
c||----------------------------------------------------||
g||---0000-0000000000--x7-then--0000-000000-7h81088p7--||
C||---0000-0000000000-----------0000-000000-7h81088p7--||
      .... ..........           .... ......
Verse:
d||------------------------------------------------||
a||------------------------------------------------||
f||--------------------------------9---8-----------||
c||--------------------------------8---7-----------||
g||---0000000000007h8-000000000000-7-0-6-----------||
C||---0000000000007h8-000000000000---0-------------||
      (Maybe here little palm muting)                 x2
d||------------------------------------------------||
a||------------------------------------------------||
f||------------------------------------------------||
c||------------------------------------------------||
g||---0000000000007h8-000000000000-303-------------||
C||---0000000000007h8-000000000000-303-------------||
      (Maybe here little palm muting)
d||------------------------------------------------||
a||------------------------------------------------||
f||--------------------------------9---8-----------||
c||--------------------------------8---7-----------||
g||---0000000000007h8-000000000000-7-0-6-----------||
C||---0000000000007h8-000000000000---0-------------||
      ............    ............   .                x2
d||------------------------------------------------||
a||------------------------------------------------||
f||------------------------------------------------||
c||------------------------------------------------||
g||---0000000000007h8-000000000000-303-------------||
C||---0000000000007h8-000000000000-303-------------||
      ............    ............ ...  

d||----------------------------------------------------||
a||----------------------------------------------------||
f||----------------------------------------------------||
c||----------------------------------------------------||
g||---0000-0000000000--x7-then--0000-000000-7h81088p7--||
C||---0000-0000000000-----------0000-000000-7h81088p7--||
      .... ..........           .... ......
Guitar2:
when guitar does the last two times the rythm
d||------------------------------------------------||
a||------------------------------------------------||
f||------------------------------------------------||
c||----7~\2---2---6~\3~--3-------------------------||x1
g||----x~\x~------x~\x~----------------------------||
C||----5~\0~-0-0--4~\1~-1-1------------------------||

d||----------------------------------------------------||
a||----------------------------------------------------||
f||--------------------------------9---8---------------||
c||--------------------------------8---7---------------||
g||---0000000000007h8-000000000000-7-0-6---------------||
C||---0000000000007h8-000000000000---0-----------------||
      (Maybe here little palm muting)                       x2
d||--------------------------------|-----|-------------||
a||--------------------------------|-----|-------------||
f||--------------------------------|-----|-------------||
c||--------------------------------|-----|-------------||
g||---0000000000007h8-000000000000-|-303-|-3-0-3~-0-1~-||
C||---0000000000007h8-000000000000-|-303-|-3-0-3~-0-1~-||
      (Maybe here little palm muting)

Chorus:
Guitar1
d||------------------------------------------------||
a||------------------------------------------------||
f||------------------------------------------------||
c||---00000000000088883333333333331111-------------||
g||---00000000000088883333333333331111-------------||
C||---00000000000088883333333333331111-------------||
Guitar2                                                x4
d||------------------------------------------------||
a||------------------------------------------------||
f||------------------------------------------------||
c||------can´t figure it!--------------------------||
g||------------------------------------------------||
C||------------------------------------------------||

Bridge:                                (Guitar last 7 times)
d||----------||  d||----------------|| d||-------------||
a||----------||  a||----------------|| a||-------------||
f||----------||  f||----------------|| f||-------------||
c||--0~------||  c||----------------|| c||-------------||
g||--0~------||  g||------------x24-|| g||-------------||
C||--0~------||  c||--01014101------|| c||--0--12\||---||
                                            .   .
d||--------------------||
a||--------------------||
f||--------------------||
c||--------------------||
g||--7h81088p7---------||
C||--7h81088p7---------||

Back To Verse:
d||----------------------------------------------------||
a||----------------------------------------------------||
f||--------------------------------9---8---------------||
c||--------------------------------8---7---------------||
g||---0000000000007h8-000000000000-7-0-6---------------||
C||---0000000000007h8-000000000000---0-----------------||
      (Maybe here little palm muting)                       x2
d||--------------------------------|-----|-------------||
a||--------------------------------|-----|-------------||
f||--------------------------------|-----|-------------||
c||--------------------------------|-----|-------------||
g||---0000000000007h8-000000000000-|-303-|-3-0-3~-0-1~-||
C||---0000000000007h8-000000000000-|-303-|-3-0-3~-0-1~-||
      (Maybe here little palm muting)

Last Chorus:
Guitar 1
d||------------------------------------------------||
a||------------------------------------------------||
f||------------------------------------------------||
c||---00000000000088883333333333331111-------------||
g||---00000000000088883333333333331111-------------||
C||---00000000000088883333333333331111-------------||
Guitar 2:                                             x4
d||------------------------------------------------||
a||------------------------------------------------||
f||------------------------------------------------||
c||---------can´t figure it!-----------------------||
g||------------------------------------------------||
C||------------------------------------------------||

Outro:
d||------------------------------------------------||
a||------------------------------------------------||
f||------------------------------------------------||
c||------------------------------------------------||
g||---0000-0000000000--x4--------------------------||
C||---0000-0000000000------------------------------||
      .... ..........           

  /  slide up
  \  slide down
  h  hammer-on
  p  pull-off
  ~  vibrato
  x  Mute note 
  .. Palm mutes
            

comments powered by Disqus
↑ Back to top | Caliban Tabs for My Little Secret. Lyrics for acoustic guitar and electric guitar. Tablatures and chords are parodies/interpretations of the original songs. You may use it for private study, scholarship, research or language learning purposes only