» » »

Caliban, I Rape Myself Tabs (ver.2)

Artists:  A B C D E F G H I J K L M N O P Q R S T U V W X Y Z # 

I Rape Myself Tabs (ver.2)

Caliban Tabs
 Rating:
4.5/5 (8 votes)
I Rape Myself lessons Tabs too difficult? Try these video lessons and learn fast
                1||--------------||x2	||--------||
2||--------------||	||--------||
3||--------------||	||--------||
4||--------------||	||--------||
5||-0-0-0...-8-5-||	||0...-8-5||
6||-0-0-0...-8-5-||	||0...-8-5||

-------------------------------------------||
-------------------------------------------||
-------------------------------------------||
-------------------------------------------||
-12-8-10-7--0-0-0-12-8-10-7---5-7-8-10-8-7-||
------------0-0-0--------------------------||

-----------------------------------------------------------------||
-----------------------------------------------------------------||
--------------------------------------7..-10..-12..-7..-17..-19..||
-----------------------------------------------------------------||
-12-8-10-7--0-0-0-12-8-10-7--0-0-0-0-----------------------------||
------------0-0-0------------0-0-0-0-----------------------------||

-------------------------||x2	||-----------||x2||---||
-------------------------||	||-----------||  ||---||
-------------------------||	||-----------||  ||---||
-------------------------||	||-----------||  ||---||
-0-0-3~~-0-0-5~~-0-0-0~~-||	||3..-5..-0..||  ||8-5||
-0-0-3~~-0-0-5~~-0-0-0~~-|| 	||3..-5..-0..||  ||8-5||

----|| palm mute at chorus
----||
----||
-0..||
-0..||
-0..||


-------------------------||x2	||-----------||x2||---||
-------------------------||	||-----------||  ||---||
-------------------------||	||-----------||  ||---||
-------------------------||	||-----------||  ||---||
-0-0-3~~-0-0-5~~-0-0-0~~-||	||3..-5..-0..||  ||8-5||
-0-0-3~~-0-0-5~~-0-0-0~~-|| 	||3..-5..-0..||  ||8-5||

||--------||
||--------||
||--------||
||--------||
||0...-8-5||
||0...-8-5||

-------------------------------------------||
-------------------------------------------||
-------------------------------------------||
-------------------------------------------||
-12-8-10-7--0-0-0-12-8-10-7---5-7-8-10-8-7-||
------------0-0-0--------------------------||

-----------------------------------------------------------------||
-----------------------------------------------------------------||
--------------------------------------7..-10..-12..-7..-17..-19..||
-----------------------------------------------------------------||
-12-8-10-7--0-0-0-12-8-10-7--0-0-0-0-----------------------------||
------------0-0-0------------0-0-0-0-----------------------------||

-------------------------||x2	||-----------||x2||-----||x2
-------------------------||	||-----------||  ||-----||
-------------------------||	||-----------||  ||-----||
-------------------------||	||-----------||  ||-----||
-0-0-3~~-0-0-5~~-0-0-0~~-||	||3..-5..-0..||  ||8-5-0||
-0-0-3~~-0-0-5~~-0-0-0~~-|| 	||3..-5..-0..||  ||8-5-0||
            
Submit corrections

comments powered by Disqus
↑ Back to top | Caliban Tabs for I Rape Myself. Lyrics for acoustic guitar and electric guitar. Tablatures and chords are parodies/interpretations of the original songs. You may use it for private study, scholarship, research or language learning purposes only