>
 >
I Rape Myself

I Rape Myself Guitar Tabs

Caliban - I Rape Myself chords, tabs, tablatures, lyrics

Guitar lessons | Add/correct | Request | Top 50 tabs Artists:  A B C D E F G H I J K L M N O P Q R S T U V W X Y Z 0-9

I Rape Myself Guitar Tabs – Caliban

CD, Sheet music, Poster

Do you like I Rape Myself? Share with your friends now
TabsTabs v2
Artist - Caliban
Album - The Undying Darkness
Song - I Rape Myself

Tuning - Drop C  CGCFAD



 (0:00) - Guitar 1
|----------------------------------------------------------------------|
|----------------------------------------------------------------------|
|----------------------------------------------------------------------|
|-7--------------------------------7-----------------------------------|
|-----8-10---7-------5--------7--------8-5---10--------7--------10-7-8-|
|---0------0---0-8-0---0-10-0---00---0-----0----0-10-0---0-12-0--------|
|PM .      .   .   .   .    .   ..   .     .    .    .   .    .
|
|(0:00) - Guitar 2
|-----------------------------------------------------------------|
|-----------------------------------------------------------------|
|-----------------------------------------------------------------|
|-----------------------------------------------------------------|
|-0-----0----0---0-----------------0-----0----0--0--8----5--------|
|-0-----0----0---0-----------------0-----0----0--0--8----5--------|
  


 (0:05) - Guitar 1
|-------------------------------------------------------------|
|-------------------------------------------------------------|
|-------------------------------------------------------------|
|-7--------------------------------7--------------------------|
|-----8-10---7-------5--------7--------8-5---10-8-7-8----5----|
|---0------0---0-8-0---0-10-0---00---0-----0--------8----5----|
|PM .      .   .   .   .    .   ..   .     .
|
|(0:05) - Guitar 2
|-----------------------------------------------------------------|
|-----------------------------------------------------------------|
|-----------------------------------------------------------------|
|-----------------------------------------------------------------|
|-0-----0----0--00-----------------0-----0----0--0--8----5--------|
|-0-----0----0--00-----------------0-----0----0--0--8----5--------|



 (0:11) - Both Guitars
|----------------------------------------------------------------------|
|----------------------------------------------------------------------|
|----------------------------------------------------------------------|
|-7--------------------------------7-----------------------------------|
|-----8-10---7-------5--------7--------8-5---10--------7--------10-7-8-|
|---0------0---0-8-0---0-10-0---00---0-----0----0-10-0---0-12-0--------|
|PM .      .   .   .   .    .   ..   .     .    .    .   .    .
|
|-------------------------------------------------------------|
|-------------------------------------------------------------|
|-------------------------------------------------------------|
|-7--------------------------------7--------------------------|
|-----8-10---7-------5--------7--------8-5---10-8-7-8----5----|
|---0------0---0-8-0---0-10-0---00---0-----0--------8----5----|x2
 PM .      .   .   .   .    .   ..   .     .



 (0:33) - Guitar 1
|--------------------------------------------------------------------|
|--------------------------------------------------------------------|
|--------------------------------------------------------------------|
|-7-------------------------------7-----------------------7---8-7----|
|-----8-10----------------------------8-10---7---8---10-----------10-|
|---0------000-0-0-0-000-0-0-000----0------0---0---0----0---0--------|
|PM .      ... . . . ... . . ...    .      .   .   .    .   .
|
|(0:33) - Guitar 2
|--------------------------------------------------------------------|
|--------------------------------------------------------------------|
|--------------------------------------------------------------------|
|-7-------------------------------7--------------------------5-------|
|-----8-10----------------------------8-10---7---5---7---8-----8-7---|
|---0------000-0-0-0-000-0-0-000----0------0---0---0---0---0---------|
 PM .      ... . . . ... . . ...    .      .   .   .   .   .



 (0:39) - Both Guitars
|---------------------------------------------------------------|
|---------------------------------------------------------------|
|---------------------------------------------------------------|
|-7-------------------------------7-----------------------------|
|-----8-10----------------------------8-10---7------------------|
|---0------000-0-0-0-000-0-0-000----0------0---0-0-000000000000-|
 PM .      ... . . . ... . . ...    .      .   . . ............



 (0:45) - Guitar 1
|--------------------------------------------------------------------|
|--------------------------------------------------------------------|
|--------------------------------------------------------------------|
|-7-------------------------------7-----------------------7---8-7----|
|-----8-10----------------------------8-10---7---8---10-----------10-|
|---0------000-0-0-0-000-0-0-000----0------0---0---0----0---0--------|
|PM .      ... . . . ... . . ...    .      .   .   .    .   .
|
|(0:45) - Guitar 2
|--------------------------------------------------------------------|
|--------------------------------------------------------------------|
|--------------------------------------------------------------------|
|-7-------------------------------7--------------------------5-------|
|-----8-10----------------------------8-10---7---5---7---8-----8-7---|
|---0------000-0-0-0-000-0-0-000----0------0---0---0---0---0---------|
|PM .      ... . . . ... . . ...    .      .   .   .   .   .
|
|(0:45) - Guitar 3   
|--------------------------------------------------------------------|
|--------------------------------------------------------------------|
|-7-7-7-7-7-7-7-7-7-7-7-7-7-7-7-7/10-10-10-10-10-10/12-12-12-12-12---|
|--------------------------------------------------------------------|
|-5-5-5-5-5-5-5-5-5-5-5-5-5-5-5-7/8--8--8--8--8--8-/10-10-10-10-10---|
|--------------------------------------------------------------------|
(They are the notes but the amount of times each note is played 
is not accurate. Also, i'm not sure whether it is played as octaves
like this or as just the higher note.  Whatever you prefer.)



 (0:50) - Guitars 1 & 2
|---------------------------------------------------------------|
|---------------------------------------------------------------|
|---------------------------------------------------------------|
|-7-------------------------------7-----------------------------|
|-----8-10----------------------------8-10---7------------------|
|---0------000-0-0-0-000-0-0-000----0------0---0-0-000000000000-|
|PM .      ... . . . ... . . ...    .      .   . . ............
|
|(0:50) - Guitar 3 
|---------------------------------------------------------------|
|---------------------------------------------------------------|
|/14-14-14-14-14-14-14-14-14-14-14/19-19-19-19-19\15-15-15-15-15|
|---------------------------------------------------------------|
|/12-12-12-12-12-12-12-12-12-12-12/17-17-17-17-17\13-13-13-13-13|
|---------------------------------------------------------------|



 (0:56) - Guitar 1
|---------------------------------------------------------------------|
|---------------------------------------------------------------------|
|---------------------------------------------------------------------|
|-----7-------------------------7-------------------------------------|
|---------10---8-------8---10-----------8---7---5---10---8---8-7------|
|-0-0---0----0---0-0-0---0----0---0-0-0---0---0---0----0---0-----10-7-|
| . .   .    .   . . .   .    .   . . .   .   .   .    .   .
|
|(0:56) - Guitar 2
|----------------------------------------------------------------|
|----------------------------------------------------------------|
|----------------------------------------------------------------|
|-3-------------5----------------0-------------------------------|
|-3-------------5----------------0-------------------------------|
|-3-------------5----------------0-------------------------------|



 (1:02) - Guitar 1
|----------------------------------------------------------------------|
|----------------------------------------------------------------------|
|----------------------------------------------------------------------|
|-----7-------------------------7-------------------10---7-------------|
|---------10---8-------8---10-----------8---7---5------------10-8-7----|
|-0-0---0----0---0-0-0---0----0---0-0-0---0---0---0----0---0--------10-|
| . .   .    .   . . .   .    .   . . .   .   .   .    .   . 
|
|(1:02) - Guitar 2
|----------------------------------------------------------------|
|----------------------------------------------------------------|
|----------------------------------------------------------------|
|-3-------------5----------------0-------------------------------|
|-3-------------5----------------0-------------------------------|
|-3-------------5----------------0-------------------------------|



 (1:07) - Guitar 1
|---------------------------------------------------------------------|
|---------------------------------------------------------------------|
|---------------------------------------------------------------------|
|-----7-------------------------7-------------------------------------|
|---------10---8-------8---10-----------8---7---5---10---8---8-7------|
|-0-0---0----0---0-0-0---0----0---0-0-0---0---0---0----0---0-----10-7-|
| . .   .    .   . . .   .    .   . . .   .   .   .    .   .
|
|(1:07) - Guitar 2
|--------------------------------------------------------------------|
|--------------------------------------------------------------------|
|--------------------------------------------------------------------|
|--------------------------------------------------------------------|
|--------------------------------------------------------------------|
|-3333333333333333555555555555555500000000000000000000000000000000---|



 (1:13) - Guitar 1
|----------------------------------------------------------------------|
|----------------------------------------------------------------------|
|----------------------------------------------------------------------|
|-----7-------------------------7-------------------10---7-------------|
|---------10---8-------8---10-----------8---7---5------------10-8-7----|
|-0-0---0----0---0-0-0---0----0---0-0-0---0---0---0----0---0--------10-|
| . .   .    .   . . .   .    .   . . .   .   .   .    .   .  
|
|(1:13) - Guitar 2
|--------------------------------------------------------------------|
|--------------------------------------------------------------------|
|--------------------------------------------------------------------|
|--------------------------------------------------------------------|
|--------------------------------------------------------------------|
|-3333333333333333555555555555555500000000000000000000000000000000---|



 (1:19)
|------------------|
|------------------|
|------------------|
|-8----5-----------|
|-8----5-----------|
|-8----5-----------|



 (1:22) - Guitar 1
|------------------------------------------------------------------|
|------------------------------------------------------------------|
|------------------------------------------------------------------|
|------------------------------------------------------------------|
|--0-000-0-000-----------------0-0-0-000-0-000-000-----------------|
|--0-000-0-000-----------------0-0-0-000-0-000-000-----------------|
|PM. ... . ...                 . . . ... . ... ...
|
|(1:22) - Guitar 2
|------------------------------------------------------------------|
|------------------------------------------------------------------|
|------------------------------------------------------------------|
|------------------------------------------------------------------|
|------------------------------------------------------------------|
|--0-000-0-000-0-0-0-0-0-0-0-0-0-0-0-000-0-000-000-0-0-0-0-0-0-0-0-| X 4
 PM. ... . ... . . . . . . . . . . . ... . ... ... . . . . . . . . 



|------------|
|------------|
|------------|
|-12\--------|
|-12\--------|
|-12\--------|



 (1:44) - Guitar 1
|---------------------------------------------------------------------|
|---------------------------------------------------------------------|
|---------------------------------------------------------------------|
|-----7-------------------------7-------------------------------------|
|---------10---8-------8---10-----------8---7---5---10---8---8-7------|
|-0-0---0----0---0-0-0---0----0---0-0-0---0---0---0----0---0-----10-7-|
| . .   .    .   . . .   .    .   . . .   .   .   .    .   .
|
|(1:44) - Guitar 2
|----------------------------------------------------------------|
|----------------------------------------------------------------|
|----------------------------------------------------------------|
|-3-------------5----------------0-------------------------------|
|-3-------------5----------------0-------------------------------|
|-3-------------5----------------0-------------------------------|



 (1:50) - Guitar 1
|----------------------------------------------------------------------|
|----------------------------------------------------------------------|
|----------------------------------------------------------------------|
|-----7-------------------------7-------------------10---7-------------|
|---------10---8-------8---10-----------8---7---5------------10-8-7----|
|-0-0---0----0---0-0-0---0----0---0-0-0---0---0---0----0---0--------10-|
| . .   .    .   . . .   .    .   . . .   .   .   .    .   . 
|
|(1:50) - Guitar 2
|----------------------------------------------------------------|
|----------------------------------------------------------------|
|----------------------------------------------------------------|
|-3-------------5----------------0-------------------------------|
|-3-------------5----------------0-------------------------------|
|-3-------------5----------------0-------------------------------|



 (1:55) - Guitar 1
|---------------------------------------------------------------------|
|---------------------------------------------------------------------|
|---------------------------------------------------------------------|
|-----7-------------------------7-------------------------------------|
|---------10---8-------8---10-----------8---7---5---10---8---8-7------|
|-0-0---0----0---0-0-0---0----0---0-0-0---0---0---0----0---0-----10-7-|
| . .   .    .   . . .   .    .   . . .   .   .   .    .   .
|
|(1:55) - Guitar 2
|--------------------------------------------------------------------|
|--------------------------------------------------------------------|
|--------------------------------------------------------------------|
|--------------------------------------------------------------------|
|--------------------------------------------------------------------|
|-3333333333333333555555555555555500000000000000000000000000000000---|



 (2:01) - Guitar 1
|----------------------------------------------------------------------|
|----------------------------------------------------------------------|
|----------------------------------------------------------------------|
|-----7-------------------------7-------------------10---7-------------|
|---------10---8-------8---10-----------8---7---5------------10-8-7----|
|-0-0---0----0---0-0-0---0----0---0-0-0---0---0---0----0---0--------10-|
| . .   .    .   . . .   .    .   . . .   .   .   .    .   . 
|
|(2:01) - Guitar 2
|--------------------------------------------------------------------|
|--------------------------------------------------------------------|
|--------------------------------------------------------------------|
|--------------------------------------------------------------------|
|--------------------------------------------------------------------|
|-3333333333333333555555555555555500000000000000000000000000000000---|



 (2:07)
|------------------|
|------------------|
|------------------|
|-8----5-----------|
|-8----5-----------|
|-8----5-----------|



 (2:10)
|----------------------------------------------------------------------|
|----------------------------------------------------------------------|
|----------------------------------------------------------------------|
|-7--------------------------------7-----------------------------------|
|-----8-10---7-------5--------7--------8-5---10--------7--------10-7-8-|
|---0------0---0-8-0---0-10-0---00---0-----0----0-10-0---0-12-0--------|
|PM .      .   .   .   .    .   ..   .     .    .    .   .    .
|
|-------------------------------------------------------------|
|-------------------------------------------------------------|
|-------------------------------------------------------------|
|-7--------------------------------7--------------------------|
|-----8-10---7-------5--------7--------8-5---10-8-7-8----5----|
|---0------0---0-8-0---0-10-0---00---0-----0--------8----5----|
 PM .      .   .   .   .    .   ..   .     .



 (2:21) - Guitar 1
|--------------------------------------------------------------------|
|--------------------------------------------------------------------|
|--------------------------------------------------------------------|
|-7-------------------------------7-----------------------7---8-7----|
|-----8-10----------------------------8-10---7---8---10-----------10-|
|---0------000-0-0-0-000-0-0-000----0------0---0---0----0---0--------|
|PM .      ... . . . ... . . ...    .      .   .   .    .   .
|
|(2:21) - Guitar 2
|--------------------------------------------------------------------|
|--------------------------------------------------------------------|
|--------------------------------------------------------------------|
|-7-------------------------------7--------------------------5-------|
|-----8-10----------------------------8-10---7---5---7---8-----8-7---|
|---0------000-0-0-0-000-0-0-000----0------0---0---0---0---0---------|
 PM .      ... . . . ... . . ...    .      .   .   .   .   .



 (2:26) - Both Guitars
|---------------------------------------------------------------|
|---------------------------------------------------------------|
|---------------------------------------------------------------|
|-7-------------------------------7-----------------------------|
|-----8-10----------------------------8-10---7------------------|
|---0------000-0-0-0-000-0-0-000----0------0---0-0-000000000000-|
 PM .      ... . . . ... . . ...    .      .   . . ............



 (2:32) - Guitar 1
|--------------------------------------------------------------------|
|--------------------------------------------------------------------|
|--------------------------------------------------------------------|
|-7-------------------------------7-----------------------7---8-7----|
|-----8-10----------------------------8-10---7---8---10-----------10-|
|---0------000-0-0-0-000-0-0-000----0------0---0---0----0---0--------|
|PM .      ... . . . ... . . ...    .      .   .   .    .   .
|
|(2:32) - Guitar 2
|--------------------------------------------------------------------|
|--------------------------------------------------------------------|
|--------------------------------------------------------------------|
|-7-------------------------------7--------------------------5-------|
|-----8-10----------------------------8-10---7---5---7---8-----8-7---|
|---0------000-0-0-0-000-0-0-000----0------0---0---0---0---0---------|
|PM .      ... . . . ... . . ...    .      .   .   .   .   .
|
|(2:32) - Guitar 3   
|--------------------------------------------------------------------|
|--------------------------------------------------------------------|
|-7-7-7-7-7-7-7-7-7-7-7-7-7-7-7-7/10-10-10-10-10-10/12-12-12-12-12---|
|--------------------------------------------------------------------|
|-5-5-5-5-5-5-5-5-5-5-5-5-5-5-5-7/8--8--8--8--8--8-/10-10-10-10-10---|
|--------------------------------------------------------------------|



 (2:38) - Guitars 1 & 2
|---------------------------------------------------------------|
|---------------------------------------------------------------|
|---------------------------------------------------------------|
|-7-------------------------------7-----------------------------|
|-----8-10----------------------------8-10---7------------------|
|---0------000-0-0-0-000-0-0-000----0------0---0-0-000000000000-|
|PM .      ... . . . ... . . ...    .      .   . . ............
|
|(2:38) - Guitar 3 
|---------------------------------------------------------------|
|---------------------------------------------------------------|
|/14-14-14-14-14-14-14-14-14-14-14/19-19-19-19-19\15-15-15-15-15|
|---------------------------------------------------------------|
|/12-12-12-12-12-12-12-12-12-12-12/17-17-17-17-17\13-13-13-13-13|
|---------------------------------------------------------------|



 (2:44) - Guitar 1
|---------------------------------------------------------------------|
|---------------------------------------------------------------------|
|---------------------------------------------------------------------|
|-----7-------------------------7-------------------------------------|
|---------10---8-------8---10-----------8---7---5---10---8---8-7------|
|-0-0---0----0---0-0-0---0----0---0-0-0---0---0---0----0---0-----10-7-|
| . .   .    .   . . .   .    .   . . .   .   .   .    .   .
|
|(2:44) - Guitar 2
|----------------------------------------------------------------|
|----------------------------------------------------------------|
|----------------------------------------------------------------|
|-3-------------5----------------0-------------------------------|
|-3-------------5----------------0-------------------------------|
|-3-------------5----------------0-------------------------------|



 (2:49) - Guitar 1
|----------------------------------------------------------------------|
|----------------------------------------------------------------------|
|----------------------------------------------------------------------|
|-----7-------------------------7-------------------10---7-------------|
|---------10---8-------8---10-----------8---7---5------------10-8-7----|
|-0-0---0----0---0-0-0---0----0---0-0-0---0---0---0----0---0--------10-|
| . .   .    .   . . .   .    .   . . .   .   .   .    .   .
|
|(2:49) - Guitar 2
|----------------------------------------------------------------|
|----------------------------------------------------------------|
|----------------------------------------------------------------|
|-3-------------5----------------0-------------------------------|
|-3-------------5----------------0-------------------------------|
|-3-------------5----------------0-------------------------------|



 (2:55) - Guitar 1
|---------------------------------------------------------------------|
|---------------------------------------------------------------------|
|---------------------------------------------------------------------|
|-----7-------------------------7-------------------------------------|
|---------10---8-------8---10-----------8---7---5---10---8---8-7------|
|-0-0---0----0---0-0-0---0----0---0-0-0---0---0---0----0---0-----10-7-|
| . .   .    .   . . .   .    .   . . .   .   .   .    .   .
|
|(2:55) - Guitar 2
|--------------------------------------------------------------------|
|--------------------------------------------------------------------|
|--------------------------------------------------------------------|
|--------------------------------------------------------------------|
|--------------------------------------------------------------------|
|-3333333333333333555555555555555500000000000000000000000000000000---|



 (3:00) - Guitar 1
|----------------------------------------------------------------------|
|----------------------------------------------------------------------|
|----------------------------------------------------------------------|
|-----7-------------------------7-------------------10---7-------------|
|---------10---8-------8---10-----------8---7---5------------10-8-7----|
|-0-0---0----0---0-0-0---0----0---0-0-0---0---0---0----0---0--------10-|
| . .   .    .   . . .   .    .   . . .   .   .   .    .   .
|
|(3:00) - Guitar 2
|--------------------------------------------------------------------|
|--------------------------------------------------------------------|
|--------------------------------------------------------------------|
|--------------------------------------------------------------------|
|--------------------------------------------------------------------|
|-3333333333333333555555555555555500000000000000000000000000000000---|



 (3:08) - Guitar 1
|-----------------------------------------------------------------|
|-----------------------------------------------------------------|
|-----------------------------------------------------------------|
|-----7-------------------------7-------------------7-------------|
|---------10---8-------8---10-----------8---7---5-------8---7h8-8~|
|-0-0---0----0---0-0-0---0----0---0-0-0---0---0---0---0---0-------|
| . .   .    .   . . .   .    .   . . .   .   .   .   .   .
|
|(3:08) - Guitar 2
|----------------------------------------------------------------|
|----------------------------------------------------------------|
|----------------------------------------------------------------|
|-8-------------5----------------0-----------------8-------5-----|
|-8-------------5----------------0-----------------8-------5-----|
|-8-------------5----------------0-----------------8-------5-----|



 (3:12)
|--------------------------------------------------------|
|--------------------------------------------------------|
|--------------------------------------------------------|
|--------------------------------------------------------|
|--0-000-0-000-----------------0-0-0-000-0-000-000-------|
|--0-000-0-000-----------------0-0-0-000-0-000-000-------|x2
 PM. ... . ...                 . . . ... . ... ...





Comments


Popular Caliban tabs & chords
It's Our Burden To Bleed Bass Tabs
Army Of Me Tabs
Beloved And The Hatred 1 Tabs
Certainty Corpses Bleed Cold Tabs
I Rape Myself 1 Tabs
My Little Secret Tabs
My Time Has Come Tabs
Nothing Is Forever Tabs
Skit1 Tabs
Together Alone Tabs


Song lyrics



↑ Back to top | Tablatures and chords are parodies/interpretations of the original songs. You may use it for private study, scholarship, research or language learning purposes only
© 2014 AZChords.com Contact us | Privacy policy | DMCA | Add/correct tabs | Request tabs | Top 50 tabs