» » »

Caliban, For Tabs (ver.1)

Artists:  A B C D E F G H I J K L M N O P Q R S T U V W X Y Z # 

For Tabs (ver.1)

Caliban Tabs
Rating:
0/5 (0 votes)
For lessons Tabs too difficult? Try these video lessons and learn fast
                This is my version for the Caliban song 'For' from the album 'Vent'
Tuning is default
pretty easy song but nice and enjoyable
this is my first tab pls rate and send an email if u have suggestions

intro
(0:00-0:50)
Fooorrr......
------------------|
------------------|
------------------|
------------------|
--------------1-0-|
-0-3-0-5-3-2--1-0-|

(0:50-0:53)

------------------|
------------------|
------------------|
------------------|
------------------|
-0-3-0-5-3-2------|


then it goes fast  (0:53-1:02)
figure out how many times they pick
Dark sky. Im lying here. Still.
----------------------------------------------------------|
----------------------------------------------------------|
----------------------------------------------------------|
----------------------------------------------------------|   3x
----------------------------------------------------------|
-00000000000000001111113333332222225555550000000000000000-

(1:02-1:05)
-------------------------------------------|
-------------------------------------------|
-------------------------------------------|
-------------------------------------------|
-------------------------------------------|
-0000000000000000111111333333222222555555--|

(1:05-1:41)
Throughtd hush eyes closing. Repeating this moment.
Waiting for...
------------------|             |------------------------|
------------------|             |------------------------|
------------------|  3x         |------------------------|
------------------|             |------------------------|
------------------|             |------------------------|
--7~-6~-0-0-0-0---|             |-6-5-2-4-2--------------|


(1:41-1:49)
Repeating this moment. Waiting for...
------------------|             |-------------------|
------------------|             |-------------------|
------------------|  3x         |-------------------|
------------------|             |-------------------|
------------------|             |-------------------|
--7~-6~-0-0-0-0---|             |-6-5-2-4-2-1~------|


this is my favourite part
(1:49-1:58)
Your abscence veils my sleep. My dreams
|--------------------|
|--------------------|
|--------------------|   3x
|--------------------|
|--------------------|
|-5-4-1-3-1-0~-------|


(1:58-2:01)
Im moving in time
----------------|
----------------|
----------------|
----------------|
----------------|
-2~-6~-5~-------|

this part can be hammering or sliding too
(2:01-2:11)
-----------------------|
-----------------------|
-----------------------|
-----------------------|    8x
-----------------------|
----12h11--11h10-------|

(2:11-2:24)
No when
-----------------------|
-----------------------|
-----------------------|
-----------------------|    8x
-----------------------|
----12h11--11h10-------|


(2:24-2:44)
Throughtd hush eyes closing. Repeating this moment.
Waiting for...
------------------|             |-------------|
------------------|             |-------------|
------------------|  3x         |-------------|
------------------|             |-------------|
------------------|             |-------------|
--7~-6~-0-0-0-0---|             |-6-5-2-4-2---|


(2:44-2:52)
Repeating this moment. Waiting for...
------------------|             |-----------------|
------------------|             |-----------------|
------------------|   3x        |-----------------|
------------------|             |-----------------|
------------------|             |-----------------|
--7~-6~-0-0-0-0---|             |-6-5-2-4-2-1~----|

(2:52-2:58)
Your abscence veils my sleep. My dreams
|----------------|
|----------------|
|----------------|  2x
|----------------|
|----------------|
|-5-4-1-3-1-0~---|

(2:58-3:01)
Im moving in time no when
|-----------------------|
|-----------------------|
|-----------------------|
|-----------------------|
|-----------------------|
|-5-4-1-3-1-0--2-6-5----|


(3:01-3:11)
And yet you don't now. But my heart does.
|-----------------------|
|-----------------------|
|-----------------------|   3x
|-----------------------|
|-----------------------|
|-5-4-1-3-1-0~----------|


(3:11-3:22)
But my heart does.
|-----------------------------|
|-----------------------------|
|-----------------------------|
|-----------------------------|
|-----------------------------|
|-5-4-1-3-1-0--2-6-5-1~~------|

i didnt tab the ending, coz i didnt find it nessecary.


i know the tab is a bit wrong but i did my best and tried it many times but this sounded 
most like it
i hope u can use it
lyrics also sound wrong for me but ive found only these, edited some in it as well.
            
Submit corrections

comments powered by Disqus
↑ Back to top | Caliban Tabs for For. Lyrics for acoustic guitar and electric guitar. Tablatures and chords are parodies/interpretations of the original songs. You may use it for private study, scholarship, research or language learning purposes only