» » »

Caliban, Fire Of Night Bass tabs (ver.2)

Artists:  A B C D E F G H I J K L M N O P Q R S T U V W X Y Z # 

Fire Of Night Bass tabs (ver.2)

Caliban Tabs
 Rating:
4/5 (4 votes)
Fire Of Night lessons Tabs too difficult? Try these video lessons and learn fast
1
                tune down 

             (4x)
f:-----------|-------------------------------------
c:-----------|-------------------------------------
g:-----------|-7-8--------10-8-10-8----------------
D:-0-0-0-0---|-----000000--------------------------


4x)
f:-------------------------------------------------
c:--------6.---------------------------------------
g:----7-8----10-8-10-8-----------------------------
d:-------------------------------------------------


(4x)
f:-------------------------------------------------
c:-------------------------------------------------
g:-7-8---------10-8-10-8---------------------------
d:-----000000-----=--------------------------------


(4x)

f:-------------------------------------------------
c:-------------------------------------------------
g:-------------------------------------------------
d:-00-0-0-0-000-0-0-0------------------------------

(1x)
f:-------------------------------------------------
c:-------------------------------------------------
g:-------------------------------------------------
d:-0-0-1-0-0-1-2-0-0-1-0-0-1-----------------------


 (4x)                    
f:---------------------------|---------------------
c:---------------------------|---------------------
g:---------------------------|---------------------
d:-0-1-0-0-1-2--0-1-0-0-1-2--|-0-0-0-0-1-0-(3x)-0--


(4x)
f:-------------------------------------------------
c:-------------------------------------------------
g:-7-8--------10-8-10-8----------------------------
d:----000000---------------------------------------


 (5x)                            (1x)
f:-------------------------|-----------------------
c:-------------------------|-----------------------
g:---5-3-3--3-2------------|-----------------------
d:-0------------3-0--------|-0-0-0-----------------


(4x)

f:-------------------------------------------------
c:-------------------------------------------------
g:-------------------------------------------------
d:-00-0-0-0-000-0-0-0------------------------------
            
Submit corrections

comments powered by Disqus
↑ Back to top | Caliban Bass for Fire Of Night. Lyrics for acoustic guitar and electric guitar. 1 Tablatures and chords are parodies/interpretations of the original songs. You may use it for private study, scholarship, research or language learning purposes only