» » »

Detect Your Liberty Tabs (ver.1)

Artists:  A B C D E F G H I J K L M N O P Q R S T U V W X Y Z # 

Detect Your Liberty Tabs (ver.1)

Caliban
Rating:
0/5 (0 votes)
Tabs too difficult? Try these video lessons and learn fast.
                Al right I know that this is the first part... I just didn't count it out so you'll have 
figure out where it's muted and all that good stuff.

|---------------------------------------------------------------------|
|-------10-10-----10-10-10-10-----10-10-----10-10-10-10-11-11-11-11---|
|-------13-13-----13-13-13-13-----13-13-----13-13-13-13-14-14-14-14---|
|---------------------------------------------------------------------|
|---------------------------------------------------------------------|
|---0-0-------0-0-------------0-0-------0-0---------------------------|


Like I said, I know that's the first part and then we got some...

|----------------------------------------------------------------------|
|----------------------------------------------------------------------|
|----------------------------------------------------------------------|
|----------------------------------------------------------------------|
|-------------------888888887777777700000000000000000000000000000000---|
|---0000000000000000---------------------------------------------------|

|----------------------------------------------------------------------|
|----------------------------------------------------------------------|
|----------------------------------------------------------------------|
|----------------------------------------------------------------------|
|-------------------88888888777777770000000000000000333311110000-------|
|---0000000000000000--------------------------------------------3333---|

Then...
|------------------------------|3x
|------------------------------|
|------------------------------|
|------------------------------|
|---0------------------7s8s7---|
|---0-0-0--000--0-0--0-7s8s7---|
      * *  ***  * *  *

|---------------------------------|
|---------------------------------|
|---------------------------------|
|---------------6-5-4-3-5-4-3-2---|
|---0-----------------------------|
|---0-0-0--000--------------------|


Then the "I hold your hat..." somethin'...
|-----------------------------------------|
|-----------------------------------------|
|-----------------------------------------|
|-----------------------------------------|
|---5---8---7---10---5---8---7---10-8-7---|
|-----------------------------------------|
Do that a few times then comes
my favorite part of the song........


|----------------------------------------------------------------------|
|----------------------------------------------------------------------|
|----------------------------------------------------------------------|
|----------------------------------------------------------------------|
|-------------------6666555533336666-----------------------------------|
|---0000000000000000----------------44444444444444444444333311113333---|


Then we're back to
|---------------------------------------------------------------------|
|-------10-10-----10-10-10-10-----10-10-----10-10-10-10-11-11-11-11---|
|-------13-13-----13-13-13-13-----13-13-----13-13-13-13-14-14-14-14---|
|---------------------------------------------------------------------|
|---------------------------------------------------------------------|
|---0-0-------0-0-------------0-0-------0-0---------------------------|
Don't know how many times.


Then there's the fake outro
|-----------------|3x
|-----------------|
|-----------------|
|-----------------|
|---0-----7s8s7---|
|---0---0-7s8s7---|
        *

|---------------------|
|---------------------|
|---------------------|
|---------------------|
|---0-----------------|
|---0-0-0--000--0-0---|
      * *  ***  * *

Then the final part...
|------------------------------|3x
|------------------------------|
|------------------------------|
|------------------------------|
|---0------------------7s8s7---|
|---0-0-0--000--0-0--0-7s8s7---|
      * *  ***  * *  *

|---------------------------------------------------|
|---------------------------------------------------|
|---------------------------------------------------|
|---------------6-5-4-3-5-4-3-2---------------------|
|---0----------------------------0------------------|
|---0-0-0--000-------------------0--0-0--000--0-0---|
      * *  ***                      * *  ***  * *


Alright I hope I didn't confuse you. I'm pretty sure it's right.
Thanks.
            
Tabs too difficult? Try these video lessons and learn fast.


comments powered by Disqus
↑ Back to top | Tablatures and chords are parodies/interpretations of the original songs. You may use it for private study, scholarship, research or language learning purposes only