» » »

Calexico, Pepito Tabs (ver.1)

Artists:  A B C D E F G H I J K L M N O P Q R S T U V W X Y Z # 

Pepito Tabs (ver.1)

Calexico Tabs
Rating:
5/5 (1 vote)
Pepito lessons Tabs too difficult? Try these video lessons and learn fast
                Calexico: Pepito (from 'A feast of wire')
===============================================

* Song is Capo'd on the 7th fret
* Tab fingering is absolute, not relative to capo
* I think its in 3/6 time but I'm not sure...

Please mail me with any comments or corrections, I'd love to hear them :)


Guitar 1 (All down strokes)
===========================

   1  +  2  +  3  +  1  +  2  +  3  +  1  +  2  +  3  +
e -7--7-----7--7-----7--7-----7--7-----7--7-----7--7------------
B -7--7----10-10----12-12-----7--7----10-10----12-12------------
G --------------------------------------------------------------__
D --------------------------------------------------------------  \
A --------------------------------------------------------------   \
E --------------------------------------------------------------   |
                                                                   \ Repeat 6x
   1  +  2  +  3  +  1  +  2  +  3  +  1  +  2  +  3  +            /
e -7--7-----7--7-----7--7-----7--7-----7--7-----7--7------------   |
B 10-10----12-12----15-15----10-10----12-12----15-15------------   /
G -------------------------------------------------------------- _/
D --------------------------------------------------------------
A --------------------------------------------------------------
E --------------------------------------------------------------


Guitar 2
===========================
At 46 seconds a second guitar comes in, I can't tell exactly what its 
doing but I think its something like....

D = Down Stroke
U = Up Stroke

   D     D     D     D  U  D  U  D
   1  +  2  +  3  +  1  +  2  +  3  +
e -------------------------------------
B 14----14----14----14-14-14-14-14-----
G 10----10----10----10-10-10-10-10----- Repeat 2x
D -------------------------------------
A -------------------------------------
E -------------------------------------

   D     D     D     D  U  D  U  D
   1  +  2  +  3  +  1  +  2  +  3  +
e -------------------------------------
B 13----13----13----13-13-13-13-13-----
G -9-----9-----9-----9--9--9--9--9----- Repeat 2x
D -------------------------------------
A -------------------------------------
E -------------------------------------

   D     D     D     D  U  D  U  D
   1  +  2  +  3  +  1  +  2  +  3  +
e -------------------------------------
B 10----10----10----10-10-10-10-10-----
G 11----11----11----11-11-11-11-11----- Repeat 3x
D -------------------------------------
A -------------------------------------
E -------------------------------------



Chorus (Both guitars?)
===========================

      Em        G          D
e ----7--------10----------9----
B ----7---------7---------10----
G ----7---------7----------9----  Repeat 4x
D ----9---------7----------7----
A ----9---------9----------7----
E ----7--------10----------7----

      Em        G          D?
e ----7--------10---------12----
B ----7---------7---------10----
G ----7---------7----------9----  Play Once
D ----9---------7----------7----
A ----9---------9----------7----
E ----7--------10----------7----



Guitar 1
===========================

   1  +  2  +  3  +  1  +  2  +  3  +  1  +  2  +  3  +
e -7--7-----7--7-----7--7-----7--7-----7--7-----7--7------------
B -7--7----10-10----12-12-----7--7----10-10----12-12------------
G --------------------------------------------------------------__
D --------------------------------------------------------------  \
A --------------------------------------------------------------   \
E --------------------------------------------------------------   |
                                                                   \ Repeat 4x
   1  +  2  +  3  +  1  +  2  +  3  +  1  +  2  +  3  +            /
e -7--7-----7--7-----7--7-----7--7-----7--7-----7--7------------   |
B 10-10----12-12----15-15----10-10----12-12----15-15------------   /
G -------------------------------------------------------------- _/
D --------------------------------------------------------------
A --------------------------------------------------------------
E --------------------------------------------------------------


Guitar 2
===========================
Comes back in at 2:03 and alternates between the first two bars that it 
played previously until fade


Enjoy!
            
Submit corrections

comments powered by Disqus
↑ Back to top | Calexico Tabs for Pepito. Lyrics for acoustic guitar and electric guitar. Tablatures and chords are parodies/interpretations of the original songs. You may use it for private study, scholarship, research or language learning purposes only