» » »

Cocaine Bass tabs (ver.1)

Artists:  A B C D E F G H I J K L M N O P Q R S T U V W X Y Z # 

Cocaine Bass tabs (ver.1)

Cale J J
Rating:
0/5 (0 votes)

Hard to play? Try these video lessons and learn fast.
                Cocaine                                     




For comments, information or insults: 

  




    Verse (With variations ad lib)                                                                   
G||--------------------------|---------------------|-------------------------|
D||*-------------------------|---------------------|-------------------------|
A||*--4-----x-x--------------|---------------------|--4-----x-x--------------|
E||-------------4------x-x-7-|--------7--4----7----|------------4------x-x-7-|


  Repeat several times                                          Chorus                                          
-----------------------||-------------------------|-------------------|
----------------------*||-------------------------|-------------------|
----------------------*||--4-----x-x--------------|-------------------|
--------7--2----4--7---||------------4------x-x-7-|----------------4--|

                                                         "...she don't
                                            
---------------------|--------------------||
---------------------|--------------------||
-----4---------------|--------------------||
--7-----------7------|--5------------4----||

lie.."


x= Muted note
            
Hard to play? Try these video lessons and learn fast. | Correct




comments powered by Disqus
↑ Back to top | Tablatures and chords are parodies/interpretations of the original songs. You may use it for private study, scholarship, research or language learning purposes only