» » »

Calamaro Andres, Paloma Tabs (ver.1)

Artists:  A B C D E F G H I J K L M N O P Q R S T U V W X Y Z # 

Paloma Tabs (ver.1)

Calamaro Andres Tabs
 Rating:
4/5 (4 votes)
Paloma lessons Tabs too difficult? Try these video lessons and learn fast
                Paloma - Andrés Calamaro

Si tenés un ZOOM 505, el patch A4 da resultado, y si además tienes el pedal de expresión, 
podrás hasta medio improvisar el principio.

   Están escritos las notas debajo de los primeros cuatro versos. Están entre paréntesis 
(así como las notas opcionales), y de los demás versos también siguen la misma progresión 
C-B-A-G-F-C-F. Fuera de los primeros, están transcritas solamente algunas, que a mi entender 
dan más color a la canción (sobre todo si se toca sin el apoyo de un bajo).
   
   Intro

  e--------------------------------------------------------1---------0---------1----------------
  B-----------------1--------1--------1--------------------------------------1---1----0-0-3p1---
  G-------------------0--------0--------0-----0-0--0h2---2---2-----0---0------------0---------0-
  D---------------2--------2-------2-------------------3-------------------3--------------------
  A-----0-2-----3--------2-------0--------(0)-------------------3-------------------------------
  E---3-----3------------------------------3----------------------------------------------------


  e------------------------------------0-------1----------------0-------------------------------	
  B------1---------1---------1--------------------------------1---1-----------------------------	
  G--------0---------0-----2--------0----0---------2--(0)---------------------------------------	
  D----2--------2-------2-------------------3----3-----2----3-----------------------------------	
  A--3--------2---------0-------0----------------------3-3-------------0--2---------------------	
  E-----------------------------3------------------------------------3-------3------------------



   Mi vida fuimos a volar    con un solo paracaidas   uno solo va a quedar  volando a la deriva
 
  e-------------------------------------0------0----------1-0--------------------1-0------------
  B------1----------1-------------------1------1----------0-0-----1--------------0-0------------	
  G------0--0-------0--0----------------2-2----2-2----------------0-0---------------------------	
  D----2----2----2-----2------------------2------2------2-----------2---------2-----------------	
  A--3---------(2)--------------(0)-----------------------------------(3)-----------------0-2---
  E-----------------------------------------(3)-------(1)------------------------(1)-----3----3-


  Vivir asi no es vivir  esperando y esperando  porque vivir es jugar y yo quiero seguir jugando    
  				(pm)
  e---------------------------------------------------1----------------------0-----------------
  B--------3-1-------1--------1-----------1-----------0-----------3-1------1---1---------------
  G--------0-0-----0-0--------0--0--------0-0---------------------0-0-----(0)------------------
  D----2----------(2)-----2------2----------3------3-----------2---------3---------------------
  A----3--------(2)------(0)----------------------------------(3)----------------------0--2----
  E----------------------------------(3)----------(1)--------------------(1)---------3-------3-
 	
								                     la condena 
 Le dije a mi corazón sin gloria pero sin pena no cometas el crimen varón si no vas a cumplir 
				 (pm)	     (pm)	
  e---------------0--------------0h3----------0h3--------1-0------------------------1-----------
  B------1--------1------------------------------------0-0----------1-----------1-----1---------   
  G------0--0----(2)-2---------------------------------------------2--2---------2-----2---------
  D----2----2--------2-----------------------------3-----------3--------3---3-------------------	
  A--3--------(2)-------(0)--------------------------------------------(3)-----------------0-2--
  E---------------------------------(3)--------------(1)------------------------(1)-------3----3 


    Quiero vivir dos veces para poder olvidarte quiero llevarte conmigo y no voy a ninguna parte 

  e-----------------0------------------------0---------1--1------------------------------------
  B------3-1--------1--1-------------3--1---(1)-1------0--0-------2-----------1----------------
  G------0-0-----------2-------------0--0-------0-----------------3-----------2----------------
  D-2----------------------------------------------3------------------------3------------------
  A-3----------(2)-------(0)------------------------------------(3)----------------------0-2---
  E----------------------------------------(3)-------(1)------------------(1)-----------3----3-


   No te preocupes Paloma hoy no estoy adentro mío como eres mi enfermedad soy un envase vacío
									(pm)	
  e------------------------0--------------------------1-------------0----0---0---------------	
  B------1---------1-------1------------------------1---1---------1-1--------1---------------
  G--------0---------0-----2---------------------(0)--------------2--------------------------
  D----2--------2----------2----------------------3-------------3-------3--3-----------------	
  A--3--------2---------(0)---------------------------------------------------------0--2-0---	
  E--------------------------------------------(3)---------------------------------3-------3-

                                                                                      han venido
  No te preocupes Paloma no hay pájaros en el nido dos ilusiones se irán a volar pero otras dos 

  e----------------------------------------------3--------1------------------------------------
  B-----1-----------1-----------------------0------0------0--0-----------1---------------------
  G-----0--0--------0---0---------------------0---------2----2-----------0-0------2------------
  D--------2------------2-----------------------------3--------------------2--------3----------
  A--3----------2-----------------------------------------------------------------------0-2----
  E--------------------------------(3)-------------------------------------------------3----3--


  (Arreglo de harmónica)


   Si me olvido de vivir colgado de sentimientos voy a vivir para repetir otra vez este momento 

  e-------------------------------------0------0----------1-0--------------------1-0-----------
  B------1----------1-------------------1------1----------0-0-----1--------------0-0-----------	
  G------0--0-------0--0----------------2-2----2-2----------------0-0--------------------------	
  D----2----2----2-----2------------------2------2-----(2)----------2---------2----------------	
  A--3---------(2)--------------(0)------------------------------------------------------0-2---
  E-----------------------------------------(3)-----------------------------------------3----3-

										          semana
   Te bajaría del cielo mujer la luna hasta tu cama porque es muy poco de amor solo una vez por

  e---------------------------------------------------1----------------------0-----------------
  B--------3-1-------1--------1-----------1-----------0-----------3-1------1---1---------------
  G--------0-0-----0-0--------0--0--------0-0---------------------0-0-----(0)------------------
  D----2----------(2)-----2------2----------3------3-----------2---------3---------------------
  A----3------------------0------------------------------------3-----------------------0--2----
  E----------------------------------(3)---------------------------------------------3-------3-

										       y mirarlo
   Puse precio a mi libertad y nadie quiso pagarlo te cambio tu corazón por el mío para mirarlo 
 	 
  e---------------------------------------------------1--0------------------1--0---------------
  B--------3-1-------1--------1-----------1-----------0--0----1-------------0--0---------------
  G--------0-0-----0-0--------0--0--------0-0-----------------0---0----------------------------
  D----2----------(2)-----2------2----------3------3--------------2-----2----------------------
  A----3------------------0----------------------------------------------------------0-2-0-----
  E----------------------------------(3)-------------------------------------------3-------3---
 	
											el suelo
   Hampas (?) de gloria mujer quiero un pedazo de cielo para invitarte a dormir en la cama o en
 
  e-------------------------------------0------0----------1-0--------------------1--0----------
  B------1----------1-------------------1------1----------0-0-----1-------------(0)(0)---------	
  G------0--0-------0--0----------------2-2----2-2----------------0-0--------------------------	
  D----2----2----2-----2------------------2------2-----(2)----------2---------2----------------	
  A--3---------(2)--------------(0)------------------------------------------------------0-2---
  E-----------------------------------------(3)-----------------------------------------3----3-

 									   puedo vivir sin ella
  Un sacrificio ritual bien o mal yo quiero hacerle a mi estrella sin principio ni final no 

  e---------------------------------------------------1--0------------------1--0---------------
  B--------3-1-------1--------1-----------1-----------0--0----1-------------0--0---------------
  G--------0-0-----0-0--------0--0--------0-0-----------------0---0----------------------------
  D----2----------(2)-----2------2----------3------3--------------2-----2----------------------
  A----3------------------0----------------------------------------------------------0-2-0-----
  E----------------------------------(3)-------------------------------------------3-------3---


  (Solo del Calamaro)

    Quiero vivir dos veces para poder olvidarte quiero llevarte conmigo y no voy a ninguna parte 

  e-----------------0------------------------0---------1--1------------------------------------
  B------3-1--------1--1-------------3--1---(1)-1------0--0-------2-----------1----------------
  G------0-0-----------2-------------0--0-------0-----------------3-----------2----------------
  D-2----------------------------------------------3------------------------3------------------
  A-3----------(2)-------(0)-------------------------------------------------------------0-2---
  E----------------------------------------(3)------------------------------------------3----3-


   No te preocupes Paloma hoy no estoy adentro mío como eres mi enfermedad soy un envase vacío
									(pm)	
  e------------------------0--------------------------1-------------0----0---0---------------	
  B------1---------1-------1------------------------1---1---------1-1--------1---------------
  G--------0---------0-----2---------------------(0)--------------2--------------------------
  D----2--------2----------2----------------------3-------------3-------3--3-----------------	
  A--3--------2---------(0)---------------------------------------------------------0--2-0---	
  E--------------------------------------------(3)---------------------------------3-------3-

                                                                                     han venido    
  No te preocupes Paloma no hay pájaros en el nido dos ilusiones se irán a volar pero otras dos 

  e----------------------------------------------3--------1------------------------------------
  B-----1-----------1-----------------------0------0------0--0-----------1---------------------
  G-----0--0--------0---0---------------------0---------2----2-----------0-0------2------------
  D--------2------------2-----------------------------3--------------------2--------3----------
  A--3----------2-----------------------------------------------------------------------0-2----
  E--------------------------------(3)-------------------------------------------------3----3--

  (solo final)
            
Submit corrections

comments powered by Disqus
↑ Back to top | Calamaro Andres Tabs for Paloma. Lyrics for acoustic guitar and electric guitar. Tablatures and chords are parodies/interpretations of the original songs. You may use it for private study, scholarship, research or language learning purposes only