» » »

Calamaro Andres, Crimenes Perfectos Tabs (ver.1)

Artists:  A B C D E F G H I J K L M N O P Q R S T U V W X Y Z # 

Crimenes Perfectos Tabs (ver.1)

Calamaro Andres Tabs
Rating:
0/5 (0 votes)
Crimenes Perfectos lessons Tabs too difficult? Try these video lessons and learn fast
                Crimenes Perfectos - Andrés Calamaro

Intro: A E/G# D/F# E D Bm E

Estrofa:

    A            E/G#                D/F#  E
Sentiste alguna        vez lo que es
    D  Bm               E
Tener      el corazón roto,
    A               E/G#       D/F#     E
Sentiste a los asuntos      pendientes volver,
    D  Bm         E
Hasta volverte muy loco.

Estribillo:

     D
Si resulta que sí
     E/D
Si podrás entender
        A                  F#m
Lo que me pasa a mí esta noche
     D
Ella no va volver
     E/D                 A         F#m
Y la pena me empieza a crecer, adentro
     D                 E/D          A
La moneda cayo por el lado de la soledad
       F#m   Bm E
Y el dolor

Estrofa:

Todo lo que termina, termina mal
Poco a poco
Y si no termina se contamina mal
Y eso se cubre de polvo

Estribillo:

Me parece que soy de la quinta
Que vio el mundial setenta y ocho
Me toco crecer viendo a mí alrededor
Paranoia y dolor
La moneda cayo por el lado de la soledad, otra vez

Puente:

 E/G#            D/F#           Bm            E
No me lastimes con tus crímenes perfectos
 E/G#              D/F#          Bm         E
Mientras la gente indiferente sé de    cuenta
 Dm7          G7         Cmaj7
De vez en cuando solamente sale afuera la
       E
Peor manera

Solo: [ A E/G# D/F# E D Bm E] X2
Yo les estoy dando las notas, ustedes escuchen como lo toca.

E|-|------------------|-------------------------------------|-|
B|-|--12b--12bh10-----|-----------------------10-10--12/14--|-|
G|-|--------------11--|--4b--4bh2---------9h11--------------|-|
D|-|------------------|-----------4-------------------------|-|
A|-|------------------|-------------------------------------|-|
e|-|------------------|-------------------------------------|-|

E|-|---------12/14-12-10-----------------------|-|
B|-|--12h10---------------12bh10h12b/14-10-----|-|
G|-|---------------------------------------11--|-|
D|-|-------------------------------------------|-|
A|-|-------------------------------------------|-|
e|-|-------------------------------------------|-|

E|-|----------------------------|------------------|-----------------------|-|
B|-|----------------------------|--12/14-12-10-----|-----------------------|-|
G|-|----------------9-11-11/14--|--------------11--|--9h11-9h11-9h11-9h11--|-|
D|-|------------9h11------------|------------------|-----------------------|-|
A|-|-----7h9/11-----------------|------------------|-----------------------|-|
e|-|--7h9-----------------------|------------------|-----------------------|-|

E|-|-----------------------|----------12/14--------------|-|
B|-|-----------------------|------10-------12/14--10-----|-|
G|-|--6b-6b-6b-4/2-4b-2----|--9h11-------------------11--|-|
D|-|--------------------4--|-----------------------------|-|
A|-|-----------------------|-----------------------------|-|
e|-|-----------------------|-----------------------------|-|

E|-|--12/14-12--|-------12------12-------------|-|
B|-|------------|--12h14---12h14----14h12--10--|-|
G|-|------------|------------------------------|-|
D|-|------------|------------------------------|-|
A|-|------------|------------------------------|-|
e|-|------------|------------------------------|-|

Estribillo:

Si resulta que sí
Si podrás entender
Lo que me pasa a mí esta noche
Ella no va volver
Y la pena me empieza a crecer, adentro
La moneda cayo por el lado de la soledad, y el dolor
La moneda cayo por el lado de la soledad, otra vez
La moneda cayo por el lado de la soledad.

Acordes:

       A      E/G#    D/F#     E       D      Bm      E/D
E|-|---0---|---0---|---2---|---0---|---2---|---2---|---4---|-|
B|-|---2---|---5---|---3---|---0---|---3---|---3---|---5---|-|
G|-|---2---|---4---|---2---|---1---|---2---|---4---|---4---|-|
D|-|---2---|---2---|---0---|---2---|---0---|---4---|---0---|-|
A|-|---0---|---X---|---0---|---2---|---X---|---2---|---X---|-|
e|-|---X---|---4---|---2---|---0---|---X---|---X---|---X---|-|

      F#m     Dm7     G7     Cmaj7    Em      Am7    Bm7
E|-|---2---|---1---|---X---|---3---|---0---|---0---|---2---|-|
B|-|---2---|---1---|---3---|---5---|---0---|---1---|---3---|-|
G|-|---2---|---2---|---4---|---4---|---0---|---0---|---2---|-|
D|-|---4---|---X---|---3---|---5---|---2---|---2---|---4---|-|
A|-|---4---|---X---|---X---|---3---|---2---|---0---|---2---|-|
e|-|---2---|---X---|---3---|---X---|---0---|---X---|---X---|-|

       G      B7       C7
E|-|---3---|---2---|---3---|-|
B|-|---0---|---4---|---5---|-|
G|-|---0---|---2---|---3---|-|
D|-|---0---|---4---|---5---|-|
A|-|---2---|---2---|---3---|-|
e|-|---3---|---X---|---X---|-|
            
Submit corrections

comments powered by Disqus
↑ Back to top | Calamaro Andres Tabs for Crimenes Perfectos. Lyrics for acoustic guitar and electric guitar. Tablatures and chords are parodies/interpretations of the original songs. You may use it for private study, scholarship, research or language learning purposes only