>
 >
Your Ghost 1

Your Ghost 1 Guitar Tabs

Calabrese - Your Ghost 1 chords, tabs, tablatures, lyrics

Guitar lessons | Add/correct | Request | Top 50 tabs Artists:  A B C D E F G H I J K L M N O P Q R S T U V W X Y Z 0-9

Your Ghost 1 Guitar Tabs – Calabrese

CD, Sheet music, Poster

Do you like Your Ghost 1? Share with your friends now
Bass TabsTabsTabs v2
Calabrese - Your Ghost


Tuning: Standard EADGBe

. = Palm-mute
x = dead note
/ = slide up


INTRO bass:
|-----------------------------------------------------------------|
|---------444--------------------444-5----------------------------|
|-2-22222-----555-44---------555--------------55-77-5--------4444-|
|--------------------3-33333-----------2-2222---------555555------|

INTRO:
|----------------------------------------------------------------------|
|-7-77777777-5---------------------------------------------------------|
|--------------7-6-66666666-7-6-4-44444444-7-6-------------------------|
|----------------------------------------------44-55-44-55-44-55-44-55-|
|----------------------------------------------------------------------|
|----------------------------------------------------------------------|

|----------------------------------------------------------------------|
|-7-77777777-5---------------------------------------------------------|
|--------------7-6-66666666-7-6-4-44444444-7-6----------------xx-xx-xx-|
|----------------------------------------------44-55-44-55-44-xx-xx-xx-|
|-------------------------------------------------------------xx-xx-xx-|
|----------------------------------------------------------------------|


VERSE:
|----------------------------------------|
|----------------------------------------|
|-4--------------------------------------|
|-4-44444444----------22222222-----------|
|-2-22222222-44444444-00000000-55555555--|
|------------22222222----------33333333--|
    ........ ........ ........ ........

|----------------------------------------|
|----------------------------------------|
|-4--------4----------2------2-----------|
|-4-44444444-4------4-22222222-5----555--|
|-2-22222222-44444444-00000000-55555555--|
|------------22222222----------33333333--|
    .......   ......   ......   ....


PRE-CHORUS:
|--------------------------------------|
|--------------------------------------|
|-44444444----------22222222-----------|
|-44444444-44444444-22222222-55555555--|
|-22222222-44444444-00000000-55555555--|
|----------22222222----------33333333--|


CHORUS
|--------------------------------------|
|--------------------------------------|
|-44444444-------------------7777------|
|-44444444-44444444-55555555-7777-4444-|
|-22222222-44444444-55555555-5555-4444-|
|----------22222222-33333333------2222-|


INTRO: (slightly different with second guitar)
Gtr1&2
|-----------------------------------------------------------------------|
|-7-77777777-5----------------------------------------------------------|
|--------------7-6-66666666-7-6-4-44444444/7766-------------------------|
|-----------------------------------------------44-55-44-55-44-55-44-55-|
|-----------------------------------------------------------------------|
|-----------------------------------------------------------------------|

 Gtr1
|-----------------------------------------------------------------------|
|-7-77777777-7-7-7-77-7-777-8-10-7-77777777777--------------------------|
|--------------------------------------------------------------xx-xx-xx-|
|-----------------------------------------------44-55-44-55-44-xx-xx-xx-|
|--------------------------------------------------------------xx-xx-xx-|
|-----------------------------------------------------------------------|
|Gtr2                                                                   |
|-----------------------------------------------------------------------|
|-7--7-7-7-7-5----------------------------------------------------------|
|--------------7-6--6-6-6-6-7-6-4--4-4-4-4-7-6-----------------xx-xx-xx-|
|----------------------------------------------4/5-4/5-4/5-4/5-xx-xx-xx-|
|--------------------------------------------------------------xx-xx-xx-|
|-----------------------------------------------------------------------|

VERSE2:
|---------------------------------------|
|---------------------------------------|
|-4-------------------------------------|
|-4-44444444-22222222-------------------|
|-2-22222222-00000000-44444444-55555555-|
|---------------------22222222-33333333-|
    ........ ........ ........ ........

|---------------------------------------|
|---------------------------------------|
|-4-------44-2-----22-------------------|
|-4-44444444-22222222-44444444-55555555-|
|-2-22222222-00000000-44444444-55555555-|
|---------------------22222222-33333333-|
    ......    .....


Repeat CHORUS

Some weird solo bit.

Repeat CHORUS


OUTRO:
|-------------------------------|
|-------------------------------|
|-7777------7777-7777-6666-6666-|
|-7777-4444-7777-7777-6666-6666-|
|-5555-4444-5555-5555-4444-4444-|
|------2222---------------------|

|----------------------------------------------------------------------|
|-7-77777777-5---------------------------------------------------------|
|--------------7-6-66666666-7-6-4-44444444-7-6-------------------------|
|----------------------------------------------44-55-44-55-44-5-4-4-4--|
|---------------------------------------------------------------4-4-4--|
|---------------------------------------------------------------2-2-2--|





Comments


Popular Calabrese tabs & chords
Phantasmagoria Bass Tabs
Crizila 1 Tabs
Death Of Me Tabs
Every Day's A Funeral Tabs
Midnight Spookshow 1 Tabs
Saturday Night Of The Living Dead Tabs
Shrunken Head Kids 1 Tabs
Violet Hellfire Tabs
Voices Of The Dead Tabs
Your Ghost Tabs


Song lyrics



↑ Back to top | Tablatures and chords are parodies/interpretations of the original songs. You may use it for private study, scholarship, research or language learning purposes only
© 2014 AZChords.com Contact us | Privacy policy | DMCA | Add/correct tabs | Request tabs | Top 50 tabs