» » »

Your Ghost Bass tabs (ver.1)

Artists:  A B C D E F G H I J K L M N O P Q R S T U V W X Y Z # 

Your Ghost Bass tabs (ver.1)

Calabrese
Rating:
0/5 (0 votes)

Tabs too difficult? Try these video lessons and learn fast.
                Your Ghost- Calabrese
Bass Tab

Intro Riff [x3]

G|--------------------------------------------------------------------------|
D|----------444------------------------444-5--------------------------------|
A|-2-22222-------555-44----------555------------------55-77-5----------4444-|
E|-----------------------3-33333--------------2-2222-------------555555-----|

Verse [x2]

"she's into the paranormal....."
G|----------------------------------------------------------------------|
D|----------------------------------------------------------------------|
A|-222222222222222------------------------------------------------------|
E|----------------222222222222222-555555555555555-33333333333333--------|

Pre-Chorus [x2]

"They never listened......."
G|---------------------------------------------------------------------|
D|---------------------------------------------------------------------|
A|-2-2222-2-2222-------------------------------------------------------|
E|--------------2-2222-2-2222--5-5555-5-5555-3-3333-3-3333-------------|

Chorus[x2]

"Every night,......"
G|---------------------------------------------------------------------|
D|---------------------------------------------------------------------|
A|-2-22-22-2-22-22--------------------------------5-5-5555-------------|
E|-----------------2-22-22-2-22-22-3-33-33-3-33-33---------2-2-2222----|

Intro Riff


Verse 2 [x2]

"Down by her old house....."
G|---------------------------------------------------------------------|
D|---------------------------------------------------------------------|
A|-222222222222--------------------------------------------------------|
E|--------------555555555555555-222222222222222-333333333333333--------|


Chorus [x2]


Guitar solo

G|--------------------------------------------------------------|
D|--------------------------------------------------------------|
A|--2-2222--222----5------------5--2-2222-222-5-----------------|
E|-------------------2-2222-222------------------2-2222-2222----|


G|---------------------------------------------------------|
D|---------------------------------------------------------|
A|-2-2222-222-5-4-4444-444-5-2-2222-222-5-4-4444-444-44----|
E|---------------------------------------------------------|


G|----------------------------------------------------------------------|
D|----------------------------------------------------------------------|
A|----------------------------------------------------------------------|
E|-3-33-33-3-33-33-2-22-22-2-22-22-3-33-33-3-33-33-2-22-22-2-22-22------|


chorus [2]

on the end of the second chorus ("ghost is real, ghost is real...")
play this:

G|----------------------------------------------------------------------|
D|----------------------------------------------------------------------|
A|--5-55-55---------5-55-55----5-55-55-5-55-55-4-44-44-4-44-44----------|
E|----------2-22-22-----------------------------------------------------|


intro riff [x1]

END
G|-------------|
D|-------------|
A|-2-----------|
E|-------------|


That's the tab. I'm pretty a lot of it's correct. If it's not exact, it still fits. 
Thanks for viewing!
            
Tabs too difficult? Try these video lessons and learn fast.




comments powered by Disqus
↑ Back to top | Tablatures and chords are parodies/interpretations of the original songs. You may use it for private study, scholarship, research or language learning purposes only