» » »

Calabrese, Your Ghost Tabs (ver.1)

Artists:  A B C D E F G H I J K L M N O P Q R S T U V W X Y Z # 

Your Ghost Tabs (ver.1)

Calabrese Tabs
 Rating:
4/5 (7 votes)
Your Ghost lessons Tabs too difficult? Try these video lessons and learn fast
1
                ----------------------------|
                 Calabrese--|Your Ghost
----------------------------|

Tuning:

e|-----------------------------------------------------------------------------|
B|--7--7-7-7-7-7-7-7-7---5-----------------------------------------------------|
G|--------------------------7-6--6-6-6-6-6-6-6-6--7-6--------------------------|
D|------------------------------------------------------4--4-4-4-4-4-4-4-4-----|
A|-----------------------------------------------------------------------------|
E|-----------------------------------------------------------------------------|

e|-----------------------------------------------------------------------------|
B|-----------------------------------------------------------------------------|
G|--7-6------------------------------------------------------------------------|
D|-------4/5-4/5-4/5-4/5-------------------------------------------------------|
A|-----------------------------------------------------------------------------|
E|-----------------------------------------------------------------------------|

   Verse: Palm Muted
e|---------------------------------------------------------------------------|
B|---------------------------------------------------------------------------|
G|--4------------------------------------------------------------------------|
D|--4--4--7--5---------------------------------------------------------------|
A|--2--4--7--5---------------------------------------------------------------|
E|-----2--5--3---------------------------------------------------------------|

   Pre Chorus:
e|---------------------------------------------------------------------------|
B|---------------------------------------------------------------------------|
G|--4------------------------------------------------------------------------|
D|--4--4--7--5---------------------------------------------------------------|
A|--2--4--7--5---------------------------------------------------------------|
E|-----2--5--3---------------------------------------------------------------|

   Chorus
e|------------------------------------------------------------------------------|
B|------------------------------------------------------------------------------|
G|--4--------7------------------------------------------------------------------|
D|--4--4--5--7--4---------------------------------------------------------------|
A|--2--4--5--5--4---------------------------------------------------------------|
E|-----2--3-----2---------------------------------------------------------------|

   Break
e|-----------------------------------------------------------------------------|
B|--7--7-7-7-7-7-7-7-7---5-----------------------------------------------------|
G|--------------------------7-6--6-6-6-6-6-6-6-6--7-6--------------------------|
D|------------------------------------------------------4--4-4-4-4-4-4-4-4-----|
A|-----------------------------------------------------------------------------|
E|-----------------------------------------------------------------------------|

e|-----------------------------------------------------------------------------|
B|-----------------------------------------------------------------------------|
G|--7-6------------------------------------------------------------------------|
D|-------4/5-4/5-4/5-4/5-------------------------------------------------------|
A|-----------------------------------------------------------------------------|
E|-----------------------------------------------------------------------------|

   Verse:Palm Muted
e|------------------------------------------------------------------------------|
B|-----2------------------------------------------------------------------------|
G|--4--2------------------------------------------------------------------------|
D|--4--2--4--5------------------------------------------------------------------|
A|--2-----4--5------------------------------------------------------------------|
E|--------2--3------------------------------------------------------------------|

  Chorus
e|------------------------------------------------------------------------------|
B|------------------------------------------------------------------------------|
G|--4--------7------------------------------------------------------------------|
D|--4--4--5--7--4---------------------------------------------------------------|
A|--2--4--5--5--4---------------------------------------------------------------|
E|-----2--3-----2---------------------------------------------------------------|

  Bridge Solo


  Chorus
e|------------------------------------------------------------------------------|
B|------------------------------------------------------------------------------|
G|--4--------7------------------7------7--6-------------------------------------|
D|--4--4--5--7--4---------------7---4--7-6--------------------------------------|
A|--2--4--5--5--4---------------5---4--5-4--------------------------------------|
E|-----2--3-----2-------------------2-------------------------------------------|

  Outro
e|-----------------------------------------------------------------------------|
B|--7--7-7-7-7-7-7-7-7---5-----------------------------------------------------|
G|--------------------------7-6--6-6-6-6-6-6-6-6--7-6--------------------------|
D|------------------------------------------------------4--4-4-4-4-4-4-4-4-----|
A|-----------------------------------------------------------------------------|
E|-----------------------------------------------------------------------------|

e|-----------------------------------------------------------------------------|
B|-----------------------------------------------------------------------------|
G|--7-6------------------------------------------------------------------------|
D|-------4/5-4/5-4/5-4/5------4-4--4-------------------------------------------|
A|-----------------------------4-4--4------------------------------------------|
E|-----------------------------2-2--2------------------------------------------|
            
Submit corrections

comments powered by Disqus
↑ Back to top | Calabrese Tabs for Your Ghost. Lyrics for acoustic guitar and electric guitar. 1 Tablatures and chords are parodies/interpretations of the original songs. You may use it for private study, scholarship, research or language learning purposes only