>
 >
Violet Hellfire

Violet Hellfire Guitar Tabs

Calabrese - Violet Hellfire chords, tabs, tablatures, lyrics

Guitar lessons | Add/correct | Request | Top 50 tabs Artists:  A B C D E F G H I J K L M N O P Q R S T U V W X Y Z 0-9

Violet Hellfire Guitar Tabs – Calabrese

CD, Sheet music, Poster

Do you like Violet Hellfire? Share with your friends now
Tabs
Calabrese - Violet hellfire

Tune 1 whole step down (AKA D tuning) DGCFAD
Ive watched the live videos, and they play the song in D standard


INTRO  0:05
|-------------------------------------------------------------------------|
|-------------------------------------------------------------------------|
|-------------------------------------------------------------------------|
|-------------------------------------------------------------------------|
|--88-1111-1010-77--88-1111-1010-77---------------------------------------|
|--------------------------------------99-1212-1111-88--99-1212-1111-88---|
CTND   0:11
|-------------------------------------------------------------------------|
|-------------------------------------------------------------------------|
|-------------------------------------------------------------------------|
|-------------------------------------------------------------------------|
|--88-1111-1010-77--88-1111-1010-77---------------------------------------|
|--------------------------------------99-1212-1111-88--/9--8--6--4-------|

 2x  0:16
|-------------------------------------------------------------------------|
|-------------------------------------------------------------------------|
|-------------------------------------------------------------------------|
|-3-----------------6------6------8-----/9-9------------------------------|
|-3-3333-3333-3333--4-4-4--6-6-6--6-6-6-/7-7------------------------------|
|-1-1111-1111-1111--4-4-4--4-4-6--6-6-6-/7-7------------------------------|
    PMPM PMPM PMPM



VERSE RIFF 0:25
|-------------------------------------------------------------------------|
|-------------------------------------------------------------------------|
|---------------------------HOLD------------------------------------------|
|-3--------------------------6----3--------------------------6-6-6--5-5-5-|
|-3-3333-3333-3333-3333-3333-6----3-3333-3333-3333-3333-3333-6-6-6--3-3-3-|
|-1-1111-1111-1111-1111-1111-4----1-1111-1111-1111-1111-1111-4-4-4--3-3-3-|
    PMPM PMPM PMPM PMPM PMPM        PMPM PMPM PMPM PMPM PMPM
CTND  0:35
|-------------------------------------------------------------------------|
|-------------------------------------------------------------------------|
|-------------------------------------------------------------------------|
|-6-----6-----8-----/9-9-----------------------6---6---8-888888888888-10--|
|-4-4-4-6-6-6-6-6-6-/7-7-----------------------4-4-6-6-6-666666666666-8---|
|-4-4-4-4-4-4-6-6-6-/7-7--113344-113344-1-1-1--4-4-4-4-6--------------8---|


BREAK

  2x  0:45
|-------------------------------------------------------------------------|
|-------------------------------------------------------------------------|
|-------------------------------------------------------------------------|
|---3-----------6-----------6-----------8---------/9----------------------|
|---3-3-3-3-3-3-6-6-6-6-6-6-4-4-4-4-4-4-6-6-6-6-6-/7----------------------|
|---1-1-1-1-1-1-4-4-4-4-4-4-4-4-4-4-4-4-6-6-6-6-6-/7----------------------|

  0:54
|-------------------------------------------------------------------------|
|-------------------------------------------------------------------------|
|-------------------------------------------------------------------------|
|---10----------8-----------6-----------8-----8---------------------------|
|---8-8-8-8-8-8-6-6-6-6-6-6-4-4-4-4-4-4-8-8-8-6-6-6-----------------------|
|---8-8-8-8-8-8-6-6-6-6-6-6-4-4-4-4-4-4-6-6-6-6-6-6-----------------------|
ctnd  0:59
|-------------------------------------------------------------------------|
|-------------------------------------------------------------------------|
|-------------------------------------------------------------------------|
|---10----------8-----------6-----------5-----8-8-8-----------------------|
|---8-8-8-8-8-8-6-6-6-6-6-6-4-4-4-4-4-4-3-3-3-6-6-6-----------------------|
|---8-8-8-8-8-8-6-6-6-6-6-6-4-4-4-4-4-4-3-3-3-6-6-6-----------------------|


INTRO RIFF   1:03
|-------------------------------------------------------------------------|
|-------------------------------------------------------------------------|
|-------------------------------------------------------------------------|
|-------------------------------------------------------------------------|
|--88-1111-1010-77--88-1111-1010-77---------------------------------------|
|--------------------------------------99-1212-1111-88--99-1212-1111-88---|
ctnd
|-------------------------------------------------------------------------|
|-------------------------------------------------------------------------|
|-------------------------------------------------------------------------|
|-------------------------------------------------------------------------|
|--88-1111-1010-77--88-1111-1010-77---------------------------------------|
|--------------------------------------99-1212-1111-88--/99--88--66--44---|



VERSE RIFF/S  1:12
|-------------------------------------------------------------------------|
|-------------------------------------------------------------------------|
|---------------------------HOLD------------------------------------------|
|-3--------------------------6----3--------------------------6-6-6--5-5-5-|
|-3-3333-3333-3333-3333-3333-6----3-3333-3333-3333-3333-3333-6-6-6--3-3-3-|
|-1-1111-1111-1111-1111-1111-4----1-1111-1111-1111-1111-1111-4-4-4--3-3-3-|
    PMPM PMPM PMPM PMPM PMPM        PMPM PMPM PMPM PMPM PMPM
  1:23
|-------------------------------------------------------------------------|
|-------------------------------------------------------------------------|
|-------------------------------------------------------------------------|
|-6-----6-----8-----/9-9-----------------------6---6---8-888888888888-10--|
|-4-4-4-6-6-6-6-6-6-/7-7-----------------------4-4-6-6-6-666666666666-8---|
|-4-4-4-4-4-4-6-6-6-/7-7--113344-113344-1-1-1--4-4-4-4-6--------------8---|


BREAK

  
 VERSE RIFF  2x  1:31   
|-------------------------------------------------------------------------|
|-------------------------------------------------------------------------|
|-------------------------------------------------------------------------|
|---3-----------6-----------6-----------8---------/9----------------------|
|---3-3-3-3-3-3-6-6-6-6-6-6-4-4-4-4-4-4-6-6-6-6-6-/7----------------------|
|---1-1-1-1-1-1-4-4-4-4-4-4-4-4-4-4-4-4-6-6-6-6-6-/7----------------------|

  1:40
|-------------------------------------------------------------------------|
|-------------------------------------------------------------------------|
|-------------------------------------------------------------------------|
|---10----------8-----------6-----------8-----8---------------------------|
|---8-8-8-8-8-8-6-6-6-6-6-6-4-4-4-4-4-4-8-8-8-6-6-6-----------------------|
|---8-8-8-8-8-8-6-6-6-6-6-6-4-4-4-4-4-4-6-6-6-6-6-6-----------------------|
  CTND 1:45
|-------------------------------------------------------------------------|
|-------------------------------------------------------------------------|
|-------------------------------------------------------------------------|
|---10----------8-----------6-----------5-----8-8-8-----------------------|
|---8-8-8-8-8-8-6-6-6-6-6-6-4-4-4-4-4-4-3-3-3-6-6-6-----------------------|
|---8-8-8-8-8-8-6-6-6-6-6-6-4-4-4-4-4-4-3-3-3-6-6-6-----------------------|



SOLO  1:50
|-------------------------------------------------------------------------|
|-------------------------------------------------------------------------|
|-------------------------------------------------------------------------|
|-------------------------------------------------------------------------|
|88-1111-1010--88-1111-1010--8h10h11~~------1111-1010----1111-1010--1011~~|
|---------------------------------------1212---------1212---------12------|
 PM PMPM PMPM  PM PMPM PMPM             PMPMPMPM PMPMPMPMPMPM PMPM  
  1:54
|-------------------------------------------------------------------------|
|-------------------------------------------------------------------------|
|-----------------------------------------99-/1313-1212--9-12-13----------|
|-----------------------------------------xx-/x-x--x-x---x-x--x-----------|
|--88-1111-1010--88-1111-1010--8h10h11~~--77-/1111-1010--7-10-11~~~~~-----|
|--PM-PMPM-PMPM--PM-PMPM-PMPM---------------------------------------------|
 
 1:59                          
|-----------------------------------------------------open-strings-hit-by-|
|-------------------------------------------------------accident------0---|
|---------------------------------------------------------------------0---|
|-------------------------------------------------------------------------|
|-------------------------------------------------------------------------|
|66666666-99999999-88888888-5555-0000---66666666-99999999-88888888-5~~----|

      2:09
|-----LET-NOTES-RING-TOGETHER---------------------------------------------|
|-----9----9----9---88888/9--0--------------------------------------------|
|------1010-1010-10-99999/10-0--666-555-----------------------------------|
|---------------------------------------888-666-5h6-6/10------------------|
|-------------------------------------------------------------------------|
|-------------------------------------------------------------------------|
  
  2:14                                            
|-LET-NOTES-RING-TOGETHER-------------------------------------------------|
|-9----9----9---88888/9--0----------------------(0)-8/5-5--8-8-8--5-5-5---|
|--1010-1010-10-99999/10-0--666-555-------------(0)-x-x-x--x-x-x--x-x-x---|
|-----------------------------------888-666-5h6-(0)-5/2-2--5-5-5--2-2-2---|
|-------------------------------------------------------------------------|
|-------------------------------------------------------------------------|
               2:22
|-------------------------------------------------------------------------|
|--8-8-8-5/8---9/6-6-9-9-9-6-6--6/999--6/9-9/8\5---555/888-555/888-5/8----|
|--x-x-x-x-x---x-x-x-x-x-x-x-x--x-xxx--x-x-x-x-x---xxx/xxx-xxx/xxx-x-x----|
|--5-5-5-2/5---6/3-3-6-6-6-3-3--3/666--3/6-6/5\2---222/555-222/555-2/5----|
|-------------------------------------------------------------------------|
|-------------------------------------------------------------------------|
  2:27
|-------------------------------------------------------------------------|
|-9/6-6-999-5-5--/999-6---55/66/88/99--55/66/88/99--55/66/88/99--55/66-8--|
|-x-x-x-xxx-x-x---xxx-x---xx-xx-xx-xx--xx-xx-xx-xx--xx-xx-xx-xx--xx-xx-x--|
|-6/3-3-666-3-3--/666-3---22/33/55/66--22/33/55/66--22/33/55/66--22/33-5--|
|-------------------------------------------------------------------------|
|-------------------------------------------------------------------------|


BREAK


 VERSE RIFF  2x  2:34
|-------------------------------------------------------------------------|
|-------------------------------------------------------------------------|
|-------------------------------------------------------------------------|
|---3-----------------6------6------8-----/9-9----------------------------|
|---3-3333-3333-3333--4-4-4--6-6-6--6-6-6-/7-7----------------------------|
|---1-1111-1111-1111--4-4-4--4-4-6--6-6-6-/7-7----------------------------|


   2x  2:44
|-------------------------------------------------------------------------|
|-------------------------------------------------------------------------|
|-------------------------------------------------------------------------|
|---10----------8-----------6-----------8-----8---------------------------|
|---8-8-8-8-8-8-6-6-6-6-6-6-4-4-4-4-4-4-8-8-8-6-6-6-----------------------|
|---8-8-8-8-8-8-6-6-6-6-6-6-4-4-4-4-4-4-6-6-6-6-6-6-----------------------|
CTND
|-------------------------------------------------------------------------|
|-------------------------------------------------------------------------|
|-------------------------------------------------------------------------|
|---10----------8-----------6-----------5-----8-8-8-----------------------|
|---8-8-8-8-8-8-6-6-6-6-6-6-4-4-4-4-4-4-3-3-3-6-6-6-----------------------|
|---8-8-8-8-8-8-6-6-6-6-6-6-4-4-4-4-4-4-3-3-3-6-6-6-----------------------|

OVERDUB/HARMONY FOR ABOVE RIFF  2:48  1X
|-------------------------------------------------------------------------|
|-------------------------------------------------------------------------|
|-101010101010-/12-12-12-12-12-12-/13-13-13-13-13-13----------------------|
|-x-x-x-x-x-x---x--x--x--x--x--x---x--x--x--x--x--x---8---8---------------|
|-8-8-8-8-8-8--/10-10-10-10-10-10-/11-11-11-11-11-11--8---6---------------|
|-----------------------------------------------------6---6---------------|



END  3:02   ALL OCTAVES UNTIL END
|-------------------------------------------------------------------------|
|-------------------------------------------------------------------------|
|1010/1313/1212--1010/1313/1212-1012-13--99/1313/1212-99/1313/1212-9/12/13|
|-------------------------------------------------------------------------|
|8-8-/1111/1010--8-8-/1111/1010-8-10-11--77/1111/1010-77/1111/1010-7/10/11|
|-------------------------------------------------------------------------|
CTND  3:07
|-------------------------------------------------------------------------|
|-------------------------------------------------------------------------|
|1010/1313/1212--1010/1313/1212-1012-13--99/1313/1212-99/1313/1212-9/12/13|
|-------------------------------------------------------------------------|
|8-8-/1111/1010--8-8-/1111/1010-8-10-11--77/1111/1010-77/1111/1010-7/10/11|
|-------------------------------------------------------------------------|
CTND  3:11
|-------------------------------------------------------------------------|
|-------------------------------------------------------------------------|
|--13/-10~~~--------------------------------------------------------------|
|--x---x------------------------------------------------------------------|
|--11/-8~~~~--------------------------------------------------------------|
|-------------------------------------------------------------------------|





Comments


Popular Calabrese tabs & chords
Phantasmagoria Bass Tabs
Resurrection Bass Tabs
Your Ghost Bass Tabs
Crizila 1 Tabs
Every Day's A Funeral Tabs
Midnight Spookshow Tabs
One Of Us Tabs
Shrunken Head Kids 1 Tabs
Vampires Don't Exist Tabs
Voices Of The Dead 1 Tabs


Song lyrics



↑ Back to top | Tablatures and chords are parodies/interpretations of the original songs. You may use it for private study, scholarship, research or language learning purposes only
© 2014 AZChords.com Contact us | Privacy policy | DMCA | Add/correct tabs | Request tabs | Top 50 tabs