» » »

Vampires Don't Exist Tabs (ver.1)

Artists:  A B C D E F G H I J K L M N O P Q R S T U V W X Y Z # 

Vampires Don't Exist Tabs (ver.1)

Calabrese
Rating:
4/5 (3 votes)

Hard to play? Try these video lessons and learn fast.
                -------------------------------------------------------------------------------
-------------------------------------------------------------------------------

Tuning: Standard

INTRO           
        REPEAT X3                THEN  
e|---------------------------|------------------------|
B|---------------------------|------------------------|
G|---------------------------|------------------------|
D|-----------77-88-77--------|------------------------|
A|--55-77-88----------88--44-|--55-77-88-55-44-55-7---|
E|---------------------------|------------------------|


VERSE 1
e|---------------------------------------------------------------------------|
B|---------------------------------------------------------------------------|
G|--7-77777777777777--3-33333333333333---------------------------------------|
D|--7-77777777777777--3-33333333333333--5-55555555555555--7-77777777777777---|
A|--5-55555555555555--1-11111111111111--5-55555555555555--7-77777777777777---|
E|--------------------------------------3-33333333333333--5-55555555555555---|
     ..............    ..............    ..............    ..............


CHORUS
e|----------------------------------------------------|
B|----------------------------------------------------|
G|-------------77777777--1010101010101010-------------|
D|---88888888--77777777--1010101010101010--77777777---| REPEAT TWICE
A|---88888888--55555555---8-8-8-8-8-8-8-8--77777777---|
E|---66666666------------------------------55555555---|


THEN
e|--------------------------------------------------------------------------------------------|
B|--------------------------------------------------------------------------------------------|
G|--7777777777777777--6666666666666666--77777777--99999999--14141414141414141414141414141414--|
D|--7777777777777777--6666666666666666--77777777--99999999--14141414141414141414141414141414--|
A|--5555555555555555--4444444444444444--55555555--77777777--12121212121212121212121212121212--|
E|--------------------------------------------------------------------------------------------|



VERSE 2  (NOTE: I added the vibrato on the last two chords even though it's not in the song)
e|-------------------------------------------|
B|-------------------------------------------|
G|------------3-33-333--5-55-555---6~---9~---|
D|--2-22-222--3-33-333--5-55-555---6~---9~---|REPEAT TWICE 
A|--2-22-222--1-11-111--3-33-333---4~---7~---|
E|--0-00-000---------------------------------|


e|-------------------------------------------------------|
B|-------------------------------------------------------|
G|--7-7-77-7-77-7-7-88888888--7-7-77-7-77-7-7-88888888---|
D|--7-7-77-7-77-7-7-88888888--7-7-77-7-77-7-7-88888888---|
A|--5-5-55-5-55-5-5-66666666--5-5-55-5-55-5-5-66666666---|
E|-------------------------------------------------------|


VERSE 3(FAST PICKING)
e|---------------------------------------------------------------------------|
B|---------------------------------------------------------------------------|
G|--1414141414141414--1212121212121212--1515151515151515--1010101010101010---|
D|---x-x-x-x-x-x-x-x---x-x-x-x-x-x-x-x---x-x-x-x-x-x-x-x---x-x-x-x-x-x-x-x---|
A|--1212121212121212--1010101010101010--1313131313131313---8-8-8-8-8-8-8-8---|
E|---------------------------------------------------------------------------|


e|---------------------------------------------------------------------------|
B|---------------------------------------------------------------------------|
G|--1414141414141414--1212121212121212--15151515151515151515151515151515-----|
D|---x-x-x-x-x-x-x-x---x-x-x-x-x-x-x-x---x-x-x-x-x-x-x-x-x-x-x-x-x-x-x-x-----|
A|--1212121212121212--1010101010101010--13131313131313131313131313131313-----|
E|---------------------------------------------------------------------------|


Solo
e|---------------------------------------------------------------------------|
B|---------------------------------------------------------------------------|
G|--5~-3~-2~-5~-3~-2~----------5~-3~-2~----2~--------------------------------|
D|--------------------5~-3~-------------5~----5~-3~--------------------------|
A|---------------------------------------------------------------------------|
E|---------------------------------------------------------------------------|


OUTRO
e|-----------------------------------------|
B|-----------------------------------------|
G|------------77777777---------------------|
D|--33333333--77777777--7777777777777777---|
A|--33333333--55555555--7777777777777777---|
E|--11111111------------5555555555555555---|



END ON
e|------|
B|------|
G|--7---|
D|--7---|
A|--5---|
E|------|



INTRO         x2
VERSE 1       x2
CHORUS        x1
INTRO         x1
VERSE 1       x2
CHORUS        x1
VERSE 2       x1
VERSE 3       x1
SOLO          x1
CHORUS        x1
OUTRO         x4  


| /  slide up
| \  slide down
| h  hammer-on
| p  pull-off
| ~  vibrato
| +  harmonic
| .  Palm mute
===============================================================================
            
Hard to play? Try these video lessons and learn fast. | Correct




comments powered by Disqus
↑ Back to top | Tablatures and chords are parodies/interpretations of the original songs. You may use it for private study, scholarship, research or language learning purposes only