>
 >
The House Of Mysterious Secrets

The House Of Mysterious Secrets Guitar Tabs

Calabrese - The House Of Mysterious Secrets chords, tabs, tablatures, lyrics

Guitar lessons | Add/correct | Request | Top 50 tabs Artists:  A B C D E F G H I J K L M N O P Q R S T U V W X Y Z 0-9

The House Of Mysterious Secrets Guitar Tabs – Calabrese

CD, Sheet music, Poster

Do you like The House Of Mysterious Secrets? Share with your friends now
Tabs
First tab, so... ya. 

/=slide
*=palm mute

(drop D tuning)

Intro:
(play this 4 times)
e---------------------------------------------------------------------------|
B---------------------------------------------------------------------------|
G---------------------------------------------------------------------------|
D-----44-------44-------44--------------------------------------------------|
A---22--5544-22--5544-22--5544-11554411-------------------------------------|
D---------------------------------------------------------------------------|

                   

Verse:
e---------------------------------------------------------------------------|
B---------------------------------------------------------------------------|
G---------------------------------------------------------------------------|
D--4-44444-7-77777-5-55555-4-44444--4-44444-7-77777-5-55555-4-44444---------|
A--2-22222/5 55555-5-55555-4-44444--2-22222/5-55555-5-55555-4-44444---------|
D------------------5-55555/4-44444------------------5-55555/4-44444---------|
     *****   *****   *****   *****    *****   *****    

e------------------------------------------------------------(these are 11s)|
B---------------------------------------------------------------------------|
G---------------------------------------------------121212121212-1111111111-|
D--4-44444-7-77777-5-55555-4-44444--4-44444-7-77777-x-x-x-x-x-x--x-x-x-x-x--|
A--2-22222/5 55555-5-55555-4-44444--2-22222/5-55555/101010101010-9-9-9-9-9--|
D------------------5-55555/4-44444------------------------------------------|
     *****   *****   *****   *****    *****   ***** (^^those are 10s & 12s)

Chorus:
e---------------------------------------------------------------------------|
B---------------------------------------------------------------------------|
G---------------------------------------------------------------------------|
D--4-4-44--5-5-55--0-0-00--2-2-22--4-4-44--5-5-55--0-0-00--2-2-22-----------|
A--2-2-22--5-5-55--0-0-00--2-2-22--2-2-22--5-5-55--0-0-00--2-2-22-----------|
D----------5-5-55--0-0-00--2-2-22----------5-5-55--0-0-00--2-2-22-----------|


e---------------------------------------------------------------------------|
B---------------------------------------------------------------------------|
G---------------------------------------------------------------------------|
D--4-4-44--5-5-55--0-0-00--2-2-22--4-4-44--5-5-55--0-0-00--2-2-22-----------|
A--2-2-22--5-5-55--0-0-00--2-2-22--2-2-22--5-5-55--0-0-00--2-2-22-----------|
D--------- 5-5-55--0-0-00--2-2-22----------5-5-55--0-0-00--2-2-22-----------|

(Intro riff 2x)

(Verse)

(chorus)



Bridge
e---------------------------------------------------------------------------|
B---------------------------------------------------------------------------|
G---------------------------------------------------------------------------|
D--4-4-44--5-5-55---7-7-77---4/7--4-4-44----------7-7-77--4/7---------------|
A--2-2-22--5-5-55---5-5-55---4/7--2-2-22--5-5-55--5-5-55--4/7---------------|
D----------5-5-55------------4/7----------5-5-55----------4/7---------------|


Solo
e---------------------------------------------------------------------------|
B---------------------------------------------------------------------------|
G--4-4-4-4-4-4-3-3-3-3-3-3-4-4-4-4-4-4-3-3-3-3-3-3---4-4--4-4-4-4-7-7--7-7-7|
D--x-x-x-x-x-x-x-x-x-x-x-x-x-x-x-x-x-x-x-x-x-x-x-x---x-x--x-x-x-x-x-x--x-x-x|
A--2-2-2-2-2-2-1-1-1-1-1-1-2-2-2-2-2-2-1-1-1-1-1-1---2-2--2-2-2-2-5-5--5-5-5|
D---------------------------------------------------------------------------|


e----------------------|
B----------------------|
G-9-9--9-9-9--9-12-11--|
D-x-x--x-x-x--x-x--x---|Repeat once more
A-7-7--7-7-7--7-10/9---|
D----------------------|


e----------------------------------------------|
B----------------------------------------------|
G----------------------------------------------| Repeat once more
D-----4---------4---------4--------------------|
A--22---5-4h5-----5-4h5-----5-4h5----0-4-5h4---|
D-------------5---------0----------4-----------|



e---------------------------------------------------------------------------|
B---------------------------------------------------------------------------|
G-4-4-4-4-4-4-4-4-4-4-4/6-6-6-6-6-6-6-6-6-6-9/7-7-7-7-7-7-7-7-7-11-9-9-9-9-9|
D-x-x-x-x-x-x-x-x-x-x-x/x-x-x-x-x-x-x-x-x-x-x/x-x-x-x-x-x-x-x-x-x/-x-x-x-x-x|
A-2-2-2-2-2-2-2-2-2-2-5/4-4-4-4-4-4-4-4-4-4-7/5-5-5-5-5-5-5-5-5-9/-7-7-7-7-7|
D---------------------------------------------------------------------------|

e------|
B------|
G-12/11|
D-x--x-|repeat once more but on second time instead of 
A-10/9-|sliding to the 9th fret just hold that note on the 10th
D------|


(chorus)

End solo
e----------------------------------------15-14-12-12-15-14-----|
B-12-12-12-14-12-12-12-14-12-12-12p14p12--------------------12-|
G--------------------------------------------------------------|
D--------------------------------------------------------------|
A--------------------------------------------------------------|
D--------------------------------------------------------------|



e---------------------------------------------------------------------|
B---------------------------------------------------------------------|
G--12-11-9-7-7-12-11-9-6-6-12-11-9-7-7-66-77-99-77-66-77-66-33--------|
D--x---x-x-x-x-x---x-x-x-x-x---x-x-x-x-xx-xx-xx-xx-xx-xx-xx-xx--------|
A--10--9-7-5-5-10--9-7-4-4-10--9-7-5-5-44-55-77-55-44-55-44-11--------|
D---------------------------------------------------------------------|

Outro
e---------------------------------------------------------------------------|
B---------------------------------------------------------------------------|
G---------------------------------------------------------------------------|
D-----44----------44----------44----------44----------44----------44--------|
A--22----55-44-22----55-44-22----55-44-22----55-44 22----55-44-22----55-44--|
D---------------------------------------------------------------------------|


e---------------------------------|
B---------------------------------|
G---------------------------------|
D-----44--------------------4/----|
A--22----55-44-11-55-44-11--2/----|
D---------------------------------|


That's all. The rhythms probably aren't exact here but I'm 100% sure these are the right notes.





Comments


Popular Calabrese tabs & chords
Blood In My Eyes Bass Tabs
Backseat Of My Hearse Tabs
Every Day's A Funeral Tabs
Eyes Down Tabs
Inside This Coffin Tabs
Midnight Spookshow Tabs
Saturday Night Of The Living Dead Tabs
Shrunken Head Kids 1 Tabs
Your Ghost Tabs
Zombie I Tabs


Song lyrics



↑ Back to top | Tablatures and chords are parodies/interpretations of the original songs. You may use it for private study, scholarship, research or language learning purposes only
© 2014 AZChords.com Contact us | Privacy policy | DMCA | Add/correct tabs | Request tabs | Top 50 tabs