» » »

Phantasmagoria Bass tabs (ver.1)

Artists:  A B C D E F G H I J K L M N O P Q R S T U V W X Y Z # 

Phantasmagoria Bass tabs (ver.1)

Calabrese
Rating:
5/5 (1 vote)

Hard to play? Try these video lessons and learn fast.
                Follow along with the song for the rhythm changes.

Intro

F|-------------------------------------------------------------------||
C|-------------------------------------------------------------------||
G|-3/7/10\7/10-7-7-7-7-7-7-10-10-10-10-10-10-------------7-7-7-7-7-7-||
D|-------------------------------------------8-8-8-8-8-8-------------||

Verses

F|-------------------------------------------------------------------||
C|-------------------------------------------------------------------||
G|-7-7-7-7-7-7-7-7-7-7-7-7-5-5-5-5-5-5-3-3-3-3-3-3-------------------||
D|-------------------------------------------------------------------||

F|-------------------------------------------------------------------||
C|-------------------------------------------------------------------||
G|-7-7-7-7-7-7-7-7-7-7-7-7-5-5-5-5-5-5-3-3-3-3-3-3-2-----------------||
D|-------------------------------------------------------------------||

Chorus

F|-------------------------------------------------------------------||
C|-------------------------------------------------------------------||
G|-7-7-7-7-7-7-------------------------8-8-8-8-8-8-------------------||
D|-------------8-8-8-8-8-8-5-5-5-5-5-5-------------------------------||

Bridge

F|-------------------------------------------------------------------||
C|-------------------------------------------------------------------||
G|-7-7-7-7-7-7-7-7-7-7-7-7-------------------------------------------||
D|-------------------------8-8-8-8-8-8-7-7-7-7-7-7-------------------||

F|-------------------------------------------------------------------||
C|-------------------------------------------------------------------||
G|-------------------------6-6-6-6-6-6-------------------------------||
D|-0-0-0-0-0-0-0-0-0-0-0-0-------------7-7-7-6-6-6-------------------||

Outro

F|-------------------------------------------------------------------||
C|-------------------------------------------------------------------||
G|-7-7-7-7-7-7-7-7-7-7-7-7-------------------------------------------||
D|-------------------------8-8-8-8-8-8-7-7\5-5---0-------------------||
            
Hard to play? Try these video lessons and learn fast. | Correct




comments powered by Disqus
↑ Back to top | Tablatures and chords are parodies/interpretations of the original songs. You may use it for private study, scholarship, research or language learning purposes only