» » »

Calabrese, Midnight Spookshow Tabs (ver.1)

Artists:  A B C D E F G H I J K L M N O P Q R S T U V W X Y Z # 

Midnight Spookshow Tabs (ver.1)

Calabrese Tabs
 Rating:
3.6/5 (7 votes)
Midnight Spookshow lessons Tabs too difficult? Try these video lessons and learn fast
                -------------------------------------------------------------------------------
-------------------------------------------------------------------------------


Tuning:Standard
Intro-X2(Im not to sure about the rhythm so youl have sort that out yourself)
e|---------------------------------------------------------------------------|
B|---------------------------------------------------------------------------|
G|4-4-4-----4-4-4-----4-4-4--------------------------------------------------|
D|4-4-4-4-4-4-4-4-5-5-4-4-4-4-4-2--5-----------------------------------------|
A|2-2-2-4-4-2-2-2-5-5-2-2-2-4-4-2--5-----------------------------------------|
E|------2-2-------3-3-------2-2-0--3----------------------------------------|

Chorus X2

e|---------------------------------------------------------------------------|
B|---------------------------------------------------------------------------|
G|4-4-4-4-----------------7-7-7-7--------------------------------------------|
D|4-4-4-4-4-4-4-4-5-5-5-5-7-7-7-7--------------------------------------------|
A|2-2-2-2-4-4-4-4-5-5-5-5-5-5-5-5--------------------------------------------|
E|--------2-2-2-2-3-3-3-3---------------------------------------------------|

Verse X4

e|---------------------------------------------------------------------------|
B|---------------------------------------------------------------------------|
G|4-4-4-4--------------------------------------------------------------------|
D|4-4-4-4-5-5-5-5-7-7-7-7-4-4-4-4--------------------------------------------|
A|2-2-2-2-5-5-5-5-7-7-7-7-4-4-4-4--------------------------------------------|
E|--------3-3-3-3-5-5-5-5-2-2-2-2--------------------------------------------|

Break X2

e|---------------------------------------------------------------------------|
B|---------------------------------------------------------------------------|
G|---------------------------------------------------------------------------|
D|-5----------------------4--------------------------------------------------|
A|-5----------------------4--------------------------------------------------|
E|-3----------------------2--------------------------------------------------| (let notes ring)

Song order-
Intro X2
ChorusX2
Verse X4
Break X2
Chorus X2
Verse X4
Break X2
Chorus X4
Intro/outro X2


| /  slide up
| \  slide down
| h  hammer-on
| p  pull-off
| ~  vibrato
| +  harmonic
| x  Mute note
            
Submit corrections

comments powered by Disqus
↑ Back to top | Calabrese Tabs for Midnight Spookshow. Lyrics for acoustic guitar and electric guitar. Tablatures and chords are parodies/interpretations of the original songs. You may use it for private study, scholarship, research or language learning purposes only