» » »

Inside This Coffin Tabs (ver.1)

Artists:  A B C D E F G H I J K L M N O P Q R S T U V W X Y Z # 

Inside This Coffin Tabs (ver.1)

Calabrese
Rating:
0/5 (0 votes)

Hard to play? Try these video lessons and learn fast.
                -------------------------------------------------------------------------------
-------------------------------------------------------------------------------

Tuning:Standard

INTRO
e|---------------------------------------------------------------------------|
B|---------------------------------------------------------------------------|
G|---------------------------------------------------------------------------|
D|---------------------------------------------------------------------------|
A|-3-333333-3-333333-3-333333-5-5h6666-3-333333-3-333333---------------------|
E|-------------------------------------------------------4~~-3~~-------------|

e|---------------------------------------------------------------------------|
B|-----88----66----88----66----88----66----66----66--------------------------|
G|--55----88----55----88----55----88----77----44-----------------------------|
D|---------------------------------------------------------------------------|
A|---------------------------------------------------------------------------|
E|---------------------------------------------------------------------------|

e|---------------------------------------------------------------------------|
B|-----88----66----88----66----88----66--------------------------------------|
G|--55----88----55----88----55----88----7~-----------------------------------|
D|---------------------------------------------------------------------------|
A|---------------------------------------------------------------------------|
E|---------------------------------------------------------------------------|


VERSE 1
e|---------------------------------------------------------------------------|
B|---------------------------------------------------------------------------|
G|--5-55------5-55--8-7-4-7--5-55------5-55--8-7-4-7-------------------------|
D|--5-55-6-66-5-55--8-7-4-7--5-55-6-66-5-55--8-7-4-7-------------------------|
A|--3-33-6-66-3-33--6-5-2-5--3-33-6-66-3-33--6-5-2-5-------------------------|
E|-------4-44---------------------4-44---------------------------------------|


CHORUS           play this part twice   | play 3x  |
e|--------------------------------------|----------|-------------|
B|--------------------------------------|----------|-------------|
G|--55555555-33333333-55555555-8888-4444|-5-555555-|-7777-8888---|
D|--55555555-33333333-55555555-8888-4444|-x-xxxxxx-|-xxxx-xxxx---|
A|--33333333-11111111-33333333-6666-2222|-3-333333-|-5555-6666---|
E|--------------------------------------|----------|-------------|

 | play 2x  |
e|----------|-------------|
B|----------|-------------|
G|-5-555555-|-------------|
D|-x-xxxxxx-|-6666-5555---|
A|-3-333333-|-xxxx-xxxx---|
E|----------|-4444-3333---|

e|---------------------------------------------------------------------------|
B|---------------------------------------------------------------------------|
G|--12121212121212-1515151515151515-1111111111111111-1212121212121212-8------|
D|---x-x-x-x-x-x-x--x-x-x-x-x-x-x-x--x-x-x-x-x-x-x-x--x-x-x-x-x-x-x-x-x------|
A|--10101010101010-1313131313131313--9-9-9-9-9-9-9-9-1010101010101010-6------|
E|---------------------------------------------------------------------------|

e|---------------------------------------------------------------------------|
B|---------------------------------------------------------------------------|
G|---------------------------------------------------------------------------|
D|---------------------------------------------------------------------------|
A|--5/7-8p5-3h5p3--3-6-3-6-3-6-3-6-----6-5---6-5-----------------------------|
E|---------------------------------3-4------3--------------------------------|


| /  slide up
| ..  slide down
| h  hammer-on
| p  pull-off
| ~  vibrato
| +  harmonic
| x  Mute note
===============================================================================
            
Hard to play? Try these video lessons and learn fast. | Correct




comments powered by Disqus
↑ Back to top | Tablatures and chords are parodies/interpretations of the original songs. You may use it for private study, scholarship, research or language learning purposes only