» » »

Calabrese, Crizila Tabs (ver.2)

Artists:  A B C D E F G H I J K L M N O P Q R S T U V W X Y Z # 

Crizila Tabs (ver.2)

Calabrese Tabs
 Rating:
4/5 (4 votes)
Crizila lessons Tabs too difficult? Try these video lessons and learn fast
                Calabrese - Crizila


Tuning: Standard EADGBe

. = Palm-mute


CHORUS/INTRO:
|------------------------------------------|
|------------------------------------------|
|------5555------7777-------5555-3333------|
|-5555-5555-8888-7777--5555-5555-3333-3333-|
|-5555-3333-8888-5555--5555-3333-1111-3333-|
|-3333------6666-------3333-----------1111-|

|------------------------------------------|
|------------------------------------------|
|------5555------7777-------5555-3333------|
|-5555-5555-8888-7777--5555-5555-3333-3-3--|
|-5555-3333-8888-5555--5555-3333-1111-3-3--|
|-3333------6666-------3333-----------1-1--|


VERSE:
|---------------------------------|
|---------------------------------|
|---------5---------------7-------| x3
|-5-------5-------8-------7-------|
|-5-------3-33333-8-------5-55555-|
|-3-33333---------6-66666---------|
    .....   .....   .....   .....

|---------------------------------|
|---------------------------------|
|---------5---------------7-77777-|
|-5-------5-------8-------7-77777-|
|-5-------3-33333-8-------5-55555-|
|-3-33333---------6-66666---------|
    .....   .....   .....


Repeat CHORUS

VERSE2
|---------------------------------|
|---------------------------------|
|---------5---------------7-------| x3
|-5-------5-------8-------7-------|
|-5-------3-33333-8-------5-55555-|
|-3-33333---------6-66666---------|
    .....   .....   .....   .....

|---------------------------------|
|---------------------------------|
|---------5---------------7-------|
|-5-------5-------8-------7-------|
|-5-------3-33333-8-------5-------|
|-3-33333---------6-66666---------|


Repeat CHORUS


BREAKDOWN
|-------------------------------------|
|-------------------------------------|
|-8-888888-7-777777-------------------|
|-------------------8-888888-7-777777-|
|-6-666666-5-555555-------------------|
|-------------------6-666666-5-555555-|

|-------------------------------------|
|-------------------------------------|
|-8-888888-10-777777-------------------|
|--------------------8-88888-10-777777-|
|-6-666666--8-555555-------------------|
|--------------------6-66666--8-555555-|

|---------------------------------------|
|---------------------------------------|
|-8-888-10-12-777777--------------------|
|--------------------8-888-10-12-777777-|
|-6-666--8-10-555555--------------------|
|--------------------6-666--8-10-555555-|

|---------------------|
|---------------------|
|-8-888-10-12-777777--|
|---------------------|
|-6-666--8-10-555555--|
|---------------------|

|-------------------------------------------------|
|-------------------------------------------------|
|-15-15-15-15-15-15-15-15-14-14-14-14-14-14-14-14-|
|-------------------------------------------------|
|-13-13-13-13-13-13-13-13-12-12-12-12-12-12-12-12-|
|-------------------------------------------------|


Repeat CHORUS

End song in G.
            
Submit corrections

comments powered by Disqus
↑ Back to top | Calabrese Tabs for Crizila. Lyrics for acoustic guitar and electric guitar. Tablatures and chords are parodies/interpretations of the original songs. You may use it for private study, scholarship, research or language learning purposes only