» » »

Come Alive Tabs (ver.1)

Artists:  A B C D E F G H I J K L M N O P Q R S T U V W X Y Z # 

Come Alive Tabs (ver.1)

Calabrese
Rating:
4/5 (1 vote)

Hard to play? Try these video lessons and learn fast.
                Band: Calabrese

Intro/Verse 

*NOTE: yes, the verse is palm muted. 

|------------------------------------------------------| 
|------------------------------------------------------| 
|------------------------------------------------------| 
|--8-8-8--10-10-10--11-11-11---8-8-8--10-10-10--6-6-6--| 
|--8-8-8--10-10-10--11-11-11---8-8-8--10-10-10--6-6-6--| 
|--6-6-6---8--8--8---9--9--9---6-6-6---8--8--8--4-4-4--| 


Chorus: 

|-----------------------------------| 
|-----------------------------------| 
|-----------------------------------| 
|--8-8-8-8--11-11-11-11--6-6-6-6-6--| 
|--8-8-8-8--11-11-11-11--6-6-6-6-6--| 
|--6-6-6-6---9--9--9--9--4-4-4-4-4--| 

Verse 2: 

|---------------------------|-------------------------------| 
|---------------------------|-------------------------------| 
|---------------------------|-------------------------------| 
|--8-8-8--3-3-3--6-6-6------|---3-3-3--6-6-6--3-3-3--6-6-6--| 
|--8-8-8--3-3-3--6-6-6------|---3-3-3--6-6-6--3-3-3--6-6-6--| 
|--6-6-6--1-1-1--4-4-4------|---1-1-1--4-4-4--1-1-1--4-4-4--| 

Chorus 
            
Hard to play? Try these video lessons and learn fast. | Correct




comments powered by Disqus
↑ Back to top | Tablatures and chords are parodies/interpretations of the original songs. You may use it for private study, scholarship, research or language learning purposes only