» » »

Cake, Short Skirt Long Jacket Tabs (ver.2)

Artists:  A B C D E F G H I J K L M N O P Q R S T U V W X Y Z # 

Short Skirt Long Jacket Tabs (ver.2)

Cake Tabs
 Rating:
4/5 (4 votes)
Short Skirt Long Jacket lessons Tabs too difficult? Try these video lessons and learn fast
                
                 PART A                      x 5
e---------------------------------------------------
b---------------------------------------------------
g---------------------------------------------------
d---------------------------------------------------
a----5--5-----3-5-3-5---------3--5-3--------------0--
E-----------------------------------5-3----5--------
                 PART AA
e-------------------------------------------|
b-------------------------------------------|
g-------------------------------------------|
d-------------------------------------------|
a---5--3---------5---------------------0----|
E---------------------4-----5-----6---------|
                   
      PART B           x 3
 
e---2--------------------3----------------|
b---3---------2-----0----0-------2--------|
g---2---------2-----0----0-------2------2-|
d-------------2-----0----0-------2------0-|
a-----------------------------------------|
E-----------------------------------------|
         
        PART C

e--2------------------------------------------------
b--3------------2----0------------------------------
g--2------------2----0------------------------------
d---------------2----0------------------------------
a---------------------------------------------------
E---------------------------5--4--5--4--5--4--5--6--
                      
                            PART D

e-------------------------------------------------------------
b-------------------------------------------------------------
g-------------------------------------------------------------
d--2--------------2-------------------------------------------
a--0---0-0--------0---0-0-------0--0-0--7~0-0-5~0-0-6-7~0-7~0-
E-------------------------------------------------------------

e-----------------------
b-----------------------
g-----------------------
d-2---------------------
a-0---------x-x--x--x---
E-----------------------

              PART E
   
e------------5----------8-------7---------5--------
b--3--------------------8-------8------------------
g--------------------------------------------------
d--------------------------------------------------
a-----------------------------------------------3--
E-----------------------------------------5--------

e-----------------------
b-----------------------
g-----------------------
d-----------------------
a-5---------------0-----
E----4----5--6----------
                  PART F
e------------------------------------------------------------------------
b------------------------------------------------------------------------
g------------------------------------------------------------------------
d-2--2-------------------------------------------------------------------
a-0--0--0-0---0--0-0--4~0-0-5~0-0-6~0-7~0-7~0---0--0-0-4~0-0-5~0-7~0-7~0-
E------------------------------------------------------------------------

                     PART G

e--------------------------------------------------------
b--------------------------------------------------------
g--------------------------------------------------------
d---2----------------------------------------------------
a---0-----------3-----5-3-5---------3--5--3--------------
E--------------------------------------------5--3-----5--

Here is the order of the song:

PART A  X3
PART AA X1
PART B  X1
PART C  X3
PART D  X1
PART A  X2
PART E  X1
PART B  X3
PART C  X1
PART B  X4
PART A  X5
PART AA X1
PART B  X3
PART C  X1
PART B  X5

                 Lyrics

™I want a girl 
With a mind like a diamond
I want a girl 
Who knows what's best

I want a girl 
With shoes that cut
And eyes that burn 
Like cigarettes

I want a girl 
With the right allocations
Who's fast and thorough
And sharp as a tack

She's playing with her jewelry
She's putting up her hair
She's touring the facility
And picking up slack

I want a girl with a short skirt and a lonnnng jacket......

I want a girl 
Who gets up early
I want a girl 
Who stays up late

I want a girl 
With uninterupted prosperity
Who uses a machete
To cut through red tape

With fingernails
That shine like justice
And a voice that is dark
Like tinted glass

She is fast and thorough 
And sharp as a tack
She's touring the facility
And picking up slack

I want a girl with a short skirt and a lonnnnng.... lonnng jacket

(Instrumental break)

I want a girl
With a smooth liquidation
I want a girl 
With good dividends

And at the city bank 
We will meet accidentally
We'll start to talk 
When she borrows my pen

She wants a car 
With a cupholder arm rest
She wants a car 
That will get her there

She's changing her name 
She's trading her MG 
For a white Chrysler LeBaron

I want a girl with a short skirt and a lonnnnggggggggg jacket
            
Submit corrections

comments powered by Disqus
↑ Back to top | Cake Tabs for Short Skirt Long Jacket. Lyrics for acoustic guitar and electric guitar. Tablatures and chords are parodies/interpretations of the original songs. You may use it for private study, scholarship, research or language learning purposes only