» » »

Nugget Bass tabs (ver.4)

Artists:  A B C D E F G H I J K L M N O P Q R S T U V W X Y Z # 

Nugget Bass tabs (ver.4)

Cake
Rating:
0/5 (0 votes)

Tabs too difficult? Try these video lessons and learn fast.
                
Intro
G)16-16-16-16-16-16-16-18----------------|
D)------------------------11-------------|
A)--------------------------12\----------|
E)-----------------------------4---------|

Main Riff
G)---------------------------------------|
D)---------------------------------------|
A)----22--2--------2-44b(5)2-------------|
E)424--------424--------------4-2--------|


Main Riff End
G)---------------------------------------|
D)---------------------------------------|
A)----22--2------------------------------|
E)424--------424-------------------------|



Break Down
G)7-7-7-7-7-7-7-7------------------------|
D)----------------------5/7--------------|
A)----------------0-5-58-----------------|
E)---------------------------------------|


Outro
G)---------------------------------------|
D)---------------------------------------|
A)---------------------------------------|
E)424---------424-----------4-2-4\-------|


Order: Intro:2x
       Main Riff:3x
       Main Riff End:1x
       Main Riff:3x
       Main Riff End:1x
       Main Riff:3x
       Main Riff End:1x
       Main Riff:1x
       Main Riff End:1x
       Main Riff:3x
       Main Riff End:1x
       Main Riff:3x
       Main Riff End:1x
       Main Riff:3x
       Main Riff End:1x
       Main Riff:3x
       Main Riff:3x
       Main Riff End:1x
       Break Down:6x
       Main Riff:3x
       Outro:2x

Legend:/:Slide Up
       \:Slide Down
       B(5):Bend (in this case bend the string enough so that it sounds like you're 
playing the fifth fret on the A String, you could always play the fifth fret if you're more 
comfortable that way. The line would be played like this.

A)------245-42-----|
E)424-----------42-|
            
Tabs too difficult? Try these video lessons and learn fast.




comments powered by Disqus
↑ Back to top | Tablatures and chords are parodies/interpretations of the original songs. You may use it for private study, scholarship, research or language learning purposes only