» » »

Cake, Never There Tabs (ver.1)

Artists:  A B C D E F G H I J K L M N O P Q R S T U V W X Y Z # 

Never There Tabs (ver.1)

Cake Tabs
Rating:
0/5 (0 votes)
Never There lessons Tabs too difficult? Try these video lessons and learn fast
                riff #1 plays throughout the song


e---------------------------------------------------#
b---------------------------------------------------#
g---------------------------------------------------#
d-----------------2-----------------2----------1----#
a----------------------0------3-----------3---------#
e---0----3------------------------------------------#



this little ending riff sounds like its for bass but it worx 4 guitar like this
 e--------------------------------------------------------#
b---------------------------------------------------------#
g---------------------------------------------------------#
d---------------------------------------------------------#
a---------------------------------------------------------#
e---333---222-0-------------------------------------------#


here is that trumpet part tabbed for the guitar so your friends know what you are playin....
 e------------------------------------------------------------------------------------------
b---17--------------------------------------17------------------19-20-----------------------
g--------16-17--16-17-17--16h17-16-------------16h17--16-----------------17-16--------------
d-------------------------------------------------------------------------------------------
a-------------------------------------------------------------------------------------------
e-----------------------------------------------------------------------------------------0-

Try playing around with hammer-ons for the trumpet part. obviously i couldnt
tell where they would be since it is a trumpet part.
this is my first tab ever posted i hope u have fun. It sounds a hell of alot better
than some of the tabs for this song i've seen.
            

comments powered by Disqus
↑ Back to top | Cake Tabs for Never There. Lyrics for acoustic guitar and electric guitar. Tablatures and chords are parodies/interpretations of the original songs. You may use it for private study, scholarship, research or language learning purposes only