» » »

Mr Mastodon Farm Bass tabs (ver.1)

Artists:  A B C D E F G H I J K L M N O P Q R S T U V W X Y Z # 

Mr Mastodon Farm Bass tabs (ver.1)

Cake
Rating:
0/5 (0 votes)

Hard to play? Try these video lessons and learn fast.
                ----------------------------------------------------------------------
                          Cake – Mr. Mastodon Farm
----------------------------------------------------------------------


Tuning: Standard

Intro (Not sure here, but this at least sounds pretty good)

G|--------------|
D|--------------|
A|----7-7-7-----|
E|--0--------0--|

REST 4 measures (Wait until guitar comes in to start counting)

Main Riff
G|-----------------------------|
D|-----------------------------|
A|----797--4--2-0-2------------|
E|--0---------------5-3-0-3-0—-|

The Main Riff is essentially the entire song.  There might be a few more or less notes 
certain points, but this is the basic scheme.

| /  slide up
| \  slide down
| h  hammer-on
| p  pull-off
| ~  vibrato
| +  harmonic
| x  Mute note
===============================================================================
            
Hard to play? Try these video lessons and learn fast. | Correct




comments powered by Disqus
↑ Back to top | Tablatures and chords are parodies/interpretations of the original songs. You may use it for private study, scholarship, research or language learning purposes only