» » »

Cake, I Will Survive Tabs (ver.2)

Artists:  A B C D E F G H I J K L M N O P Q R S T U V W X Y Z # 

I Will Survive Tabs (ver.2)

Cake Tabs
 Rating:
3.2/5 (17 votes)
I Will Survive lessons Tabs too difficult? Try these video lessons and learn fast
                Cake,I Will Survive.
  
 7 chord progression throughout song
E-5-------5----3------3-----------
B-5-------5----3------3-----------
G-5-6-----5-7--3-4----3-5---------
D-5---7---5-7--3---5--3-5---------
A-5---7---5----3---5--3-----------
E-5------------3------------------
   A       D    G      C

-1------4------------------
-1------4------------------
-1-2----4--1---------------
-1--3---4--2---------------
-1--3--2---2---------------
-1-------------------------
F       B  E      
These are the seven chords, they are played more than once but you
can hear the pattern. Now I have looked everywhere for the solo, and
could never find it, so one day I tabbed it out myself, it's sounds
perfect when played with the song. Here it goes

E--------------------------------------------------
B--8b-8p5------------------------------------------
G--------7-5---5h7-7-7-7-7-7-7-7-5p7-5v-4p5p4p5p4--
D------------7-------------------------------------
A--------------------------------------------------
E--------------------------------------------------

E--------------------------------------------------
B--------------------------------------------------
G-------------------------5-5-7-7b5--5-7-8p7p8p7p8-
D-----5-7b5-5-7p5--5--5-7--7-------7---------------
A-5h7------7------7--7-----------------------------
E--------------------------------------------------

E--------------------------------------------------
B--------------------------------------------------
G----------9-12-12p9-------------------------------
D-----9-11---11b-----11-9---9---11-9-----9---------
A-9-11--------------------11---------9-11----------
E--------------------------------------------------

E--------------------------------------------------
B---8--5/7/3/5/2/3/2-0-----------------------------
G--------------------------------------------------
D--9---5/7/4/5/2/4/2-0-----------------------------
A--------------------------------------------------
E--------------------------------------------------

E-7/3/5/2/3/0/2---------------5/2/3/0h2------------
B--------------0h5-5-5-5-5-5-----------3/5/0h2-----
G-7/3/5/2/3/0/2---------------5/2/3/0h2------------
D--------------0h5---------------------3/5/0h2-----
A--------------------------------------------------
E--------------------------------------------------
  End of Solo
E--------------------------------------------------
B-2/3----------------------------------------------
G--------------------------------------------------
D-2/3----------------------------------------------
A--------------------------------------------------
E--------------------------------------------------

 Fill 1 Right after they yell \"One Two\" it repeats itself a few times
E--------------------------------------------------
B--10 10 10 10-10-8--------------------------------
G--------------------------------------------------
D--------------------------------------------------
A--------------------------------------------------
E--------------------------------------------------

 Fill 2-Trumpet fill-leads into end of song
E--------------------------------------------------
B--------8-6-5p6p5-------------8-5p6p5-3p5p3-1p3p1-
G-7-5--5-----------7-5-----4-7---------------------
D----7-----------------5-5-------------------------
A--------------------------------------------------
E--------------------------------------------------

E--------------------1p0---1p0---1p0---1p0---------
B-0p1p0-0p1---3-5-6-----3p1---3p1---3p1---3p1------
G-----------2--------------------------------------
D--------------------------------------------------
A--------------------------------------------------
E--------------------------------------------------

E--------------------0-----0---0-1/5----------------
B-3-1-0-1-0--------1-----1----1---------------------
G------------2-1-2-----2-----2----------------------
D---------------------------------------------------
A---------------------------------------------------
E---------------------------------------------------

 
            
Submit corrections

comments powered by Disqus
↑ Back to top | Cake Tabs for I Will Survive. Lyrics for acoustic guitar and electric guitar. Tablatures and chords are parodies/interpretations of the original songs. You may use it for private study, scholarship, research or language learning purposes only