» » »

I Will Survive Chords (ver.2)

Artists:  A B C D E F G H I J K L M N O P Q R S T U V W X Y Z # 

I Will Survive Chords (ver.2)

Cake
Rating:
3/5 (6 votes)

Hard to play? Try these video lessons and learn fast.
                #



These are the two songs from Cake I found the chord progression for.  I
haven't learned the words yet, so you must excuse me for not listing the
lyrics.

Frank Sinatra:

Intro:
------------------------------------------------------------------------
------------------------------
------------------------------------------------------------------------
------------------------------
------------------------------0-----------------------------------------
------------------------------
-------------2----------------------------------------------------------
-----------2------------1---
-----2-2-2---2-----2-2-2---2---2-2-2-3--------------3-2-0----------0-2--
--2------0------
------------------------------------------------3---3-3-3----------3---3
-------------2-3---------------

Actual song: Em, C, G, B7
Step down:
--------------------------------------------
---------------------------------------
------------------------------------------
---------------------------------------------
--------------3--------2------1---------------
--0-----2-3-----2-3----2-3----------------------------

I Will Survive:

The chord progression is :
Am Dm G C F B7 E or Em

Have fun...I hope it's right if you have any questions e-mail me at

Band:  Cake

This song is kind of easy, it only has five notes.  The solos are simple
licks using regular major scales.

He starts off almost scr*ping his strings with his pick:
muted...                        1st time            2nd time wide open
      A x8    D x8    G x8     C x8          E x16
1|   5          5       |   3          3        |        0
2|   5          7       |   3          5        |        0
3|   6          7       |   4          5        |        1
4|   7          7       |   5          5        |        2
5|   7          5       |   5          3        |        2
6|   5          x       |   3                    |        0

That is it.   This song is cake.


I Will Survive from Cake. Album Fashion nugget
Complete Lyrics by Felix Gallego

intro:
e--------------------------0----
b--------------------------0----
g-----7-------5-------4----1----
d-7---7X8-5---5X8-3---4X8--2X8--
a-7X8-5---5X8-3---3X8-2----2----
e-5-------3-------1--------0----


verses/chorus:

Am Dm G C F B E

Am                          Dm
at first i was afraid i was petrified
G                                            C
i was thinking i could never live without you by my side
F                                               B
but then i spent so many nights just thinking how you did me wrong
E
i grew strong i learned how to get along

etc.

(Gloria Gaynor version the chords are Am  Dm  G  C  Fmaj7  Bm7-5  E)

Lyrics:
----------------------
At first I was afraid.
I was petrified.
I kept thinking I could never live
Without you by my side.
But then I spent so many nights
            
Hard to play? Try these video lessons and learn fast. | Correct




comments powered by Disqus
↑ Back to top | Tablatures and chords are parodies/interpretations of the original songs. You may use it for private study, scholarship, research or language learning purposes only