» » »

Haze Of Love Tabs (ver.1)

Artists:  A B C D E F G H I J K L M N O P Q R S T U V W X Y Z # 

Haze Of Love Tabs (ver.1)

Cake
Rating:
5/5 (1 vote)

Hard to play? Try these video lessons and learn fast.
                
I think this sounds best with bar chords --
D - X57775
A - 577655

If you strum creatively, you can get it to sound pretty cool.
Also, for the solo make sure that you LISTEN TO THE SONG for
the timing.  If you know the song the solo should sound pretty
good.  A better guitar player could probably tab it more
efficiently, so please feel free to modify this.

D
It's three o'clock in the morning,
D              A
Or maybe it's four.
A
I am thinking of you,
A
Wondering what I should do,
A                                     D
But I'm finally cutting through this haze.

D
It's four o'clock in the morning,
D              A
Or maybe it's five.
A
I think I'm alive,
A
And I think I'll survive.
A                                 D
I'm finally cutting through this haze of love.
D        A
Haze of love.
A
For days and days and days,
A                 D
I'm in a haze of love.

D                              A
Yeah you don't love me like I love you.
A
Although you pretend,
A
I can see this will end.
A                                 D
I'm finally cutting through this haze of love.
D        A
Haze of love.
A
For days and days and days,
A                 D
I'm in a haze of love.

-2-0-3-3-2-0-0---------------0-----0-0-2-3-----0-0-2-3-----|
---------------3-0-2-2-3-------2-3---------2-3-------------|
-----------------------------------------------------------|
-----------------------------------------------------------|
-----------------------------------------------------------|
-----------------------------------------------------------|

-----0-0-2-3-3-0-2-0---------------------------------------|
-2-3-----------------3-0-----------------------------------|
-------------------------2-0-------------------------------|
-----------------------------4-----------------------------|
-----------------------------------------------------------|
-----------------------------------------------------------|

-----------------------------------------------------------|
-----------------------------------------------------------|
-----------------------------------------------------------|
-----------------------------------------------------------|
-5-5-5-5-5---5-5-5-5-5---5/4---5-5-5-5-5---5-5-5-5-5---5/4-|
-----------------------------------------------------------|

-----------------------------------------------------------|
-----------------------------------------------------------|
-----------------------------------------------------------|
-----------------------------------------------------------|
-5-5-5-4-4-4-2-2-2-0---5-5-5-4-4-4-2-2-2-0-----------------|
-----------------------------------------------------------|

-----------------------------------------------------------|
---2-2-3-5---2-2-3-5---2-2-3-5-----------------------------|
-2-2-2-4-6---2-2-4-6---2-2-4-6-----------------------------|
-----------------------------------------------------------|
-----------------------------------5/4-5-------------------|
-----------------------------------------------------------|

D
It's five o'clock in the morning,
D              A
Or maybe it's six.
A
I am sick of your lies.
A
I am sick of your tricks.
A                                 D
I'm finally cutting through this haze of love.
D        A
Haze of love.
A
For days and days and days,
A
For days and days and days,
A
For days and days and days,
A                 D
I'm in a haze of love.



-Blake


+--------------------------------------------------------------------------+
| or research. |
+--------------------------------------------------------------------------+
            
Hard to play? Try these video lessons and learn fast. | Correct




comments powered by Disqus
↑ Back to top | Tablatures and chords are parodies/interpretations of the original songs. You may use it for private study, scholarship, research or language learning purposes only