» » »

Friend Is A Four Letter Word Tabs (ver.3)

Artists:  A B C D E F G H I J K L M N O P Q R S T U V W X Y Z # 

Friend Is A Four Letter Word Tabs (ver.3)

Cake
Rating:
0/5 (0 votes)

Tabs too difficult? Try these video lessons and learn fast.
                Cake - Friend is a four letter word
e:---------------0-----------------------0-----------------------1-----------|
B:------------1-----1-----------------1-----1-----------------1-----1--------|
G:---------2-----------2-----------0-----------0-----------2-----------2-----|
D:------2-----------------2-----2-----------------2-----3-----------------3--|
A:---0-----------------------3-----------------------------------------------|
E:---------------------------------------------------1-----------------------|

e:------------2--------------------------------------------------------------|
B:---------1-----1-----------------------------------------------------------|
G:------2-----------2--------------------------------------------------------|
D:---0-----------------0-----------------------------------------------------|
A:0--------------------------------------------------------------------------|
E:---------------------------------------------------------------------------|

e:--5--5-5--x-x-----x------x-x--3-x--1--1-1-x-x-1-1--1--1--1-----------------|
B:--5--5-5--x-x--7--x--5-5-x-x--3-x--1--1-1-x-x-1-1--1--1--1-----------------|
G:--6--6-6--x-x--7--x--5-5-x-x--4-x--2--2-2-x-x-2-2--2--2--2-----------------|
D:--7--7-7--x-x--7--x--5-5-x-x--5-x--3--3-3-x-x-3-3--3--3--3-----------------|
A:--7--7-7--x-x--5--0--3-3-x-x--5-x--3--3-3-x-x-3-3--3--3--3-----------------|
E:--5--5-5--x-x------------x-x--3-0--1--1-1-x-x-0-0--0--0--0-----------------|

e:--------------------------0----------------------------------0-------------|
B:---------0--------------1---1---------------0--------------1---1-----------|
G:-------0---0----------2-------2-----------0---0----------2-------2---------|
D:-----2-------2------2-----------2-------2-------2------2-----------2-------|
A:---2-----------2--0-------------------2-----------2--0---------------0---2-|
E:-0----------------------------------0----------------------------------3---|

e:---------------------0---------------------------------0----------0-0-1-2--|
B:----3--------------1---1--------------3--------------1---1--------1-1-1-1--|
G:--0---0----------0-------0----------0---0----------0-------0------2-0-2-2--|
D:0-------0------2-----------2------0-------0------2-----------2----2-2-3-0--|
A:----------2--3------------------2-----------2--3------------------0-3-3-0--|
E:------------------------------3---------------------------------------1----|
            
Tabs too difficult? Try these video lessons and learn fast.


comments powered by Disqus
↑ Back to top | Tablatures and chords are parodies/interpretations of the original songs. You may use it for private study, scholarship, research or language learning purposes only