» » »

Frank Sinatra Tabs (ver.4)

Artists:  A B C D E F G H I J K L M N O P Q R S T U V W X Y Z # 

Frank Sinatra Tabs (ver.4)

Cake
Rating:
5/5 (3 votes)

Hard to play? Try these video lessons and learn fast.
                #

	Frank Sinatra, by Cake.
 
Intro: Done on an organ, tabbed for guitar.
D|-------4--------7-------------------------
A|--4-44--4--4-44--4--4-444\5--------5-4-2-0
E|--------------------------5--5-55---------
 
D|----------7----------------
A|---2-4-4\7---5----7~-------
E|-5------------5--7---------
 
"WE know of an..."
Then when that's through, you do this lick on the electric:

E-|--2-2h3-3-3p2---
B-|--0-0---0-0-0---

After you do that the acoustic keeps on playing these chords. Watch out for time signature change (3/4):
  Eb C G B7
E-|--0-------0-------3-------2-----
B-|--0-------1-------0-------0-----
G-|--0-------0-------0-------2-----
D-|--2-------2-------0-------1-----
A-|--2-------3-------2-------2-----
E-|--0---------------3-------------
 Then they play a riff under the last verse before the solo:
D-|----------------------------------------------1~--------------------
A-|----------------3~-----------2~-------------------------------------
E-|-0~-----2---3--------2---3----------2-2-1-0-------------------------
The solo:
G-|-----------------------0~-------------------------------------------
D-|-------2~-----------------------------------------------------------
A-|-2-2-2-------2---2-2-2-------2---2-2-2-3~--------------3--2--0------
E-|---------------------------------------------3---3-3-3----------3---
 
D-|------------------5~------------4~-
A-|-----0-2---3\5---------2-0-2-------
E-|-3---------------------------------
 
A-|--------------------------------------------
E-|--5555555555555-77777-88888888-333333333333-
 
G-|-5-4-2-0------------------------------------------------------------
D-|---------4~---------------------------------------------------------
A-|--------------------------------------------------------------------
 
OUTRO:
	Mostly trumpet.
Finally, after the break, there's this variation on the earlier riff,
Played over and over to fade out:
 
D-|--------------------------------------------------------------------
A-|----------------3~-----------2~-------------1~----------------------
E-|-0~-----2---3--------2---3----------2---1----------2---3---0--------
 
Well, I figured the whole darn thing out in 15 minuets, 
so its not too hard. This is me first tab I have written If anyone can find the bassline, I would be ever so 
grateful.
 
 
 
 
 
 
 
 
 
 

These are the two songs from Cake I found the chord progression for.  I
haven't learned the words yet, so you must excuse me for not listing the
lyrics.

Frank Sinatra:

Intro:
------------------------------------------------------------------------
------------------------------
------------------------------------------------------------------------
------------------------------
------------------------------0-----------------------------------------
------------------------------
-------------2----------------------------------------------------------
-----------2------------1---
-----2-2-2---2-----2-2-2---2---2-2-2-3--------------3-2-0----------0-2--
--2------0------
------------------------------------------------3---3-3-3----------3---3
-------------2-3---------------

Actual song: Em, C, G, B7
Step down:
--------------------------------------------
---------------------------------------
------------------------------------------
---------------------------------------------
--------------3--------2------1---------------
--0-----2-3-----2-3----2-3----------------------------

I Will Survive:

The chord progression is :
Am Dm G C F B7 E or Em

Have fun...I hope it's right if you have any questions e-mail me at
            
Hard to play? Try these video lessons and learn fast. | Correct




comments powered by Disqus
↑ Back to top | Tablatures and chords are parodies/interpretations of the original songs. You may use it for private study, scholarship, research or language learning purposes only