>
 >
End Of The Movie 1

End Of The Movie 1 Guitar Tabs

Cake - End Of The Movie 1 chords, tabs, tablatures, lyrics

Guitar lessons | Add/correct | Request | Top 50 tabs Artists:  A B C D E F G H I J K L M N O P Q R S T U V W X Y Z 0-9

End Of The Movie 1 Guitar Tabs – Cake

CD, Sheet music, Poster

Do you like End Of The Movie 1? Share with your friends now
ChordsTabsTabs v2Ukulele

NOTE: These tabs are for education purposes only

This song is actually not as hard as it seems.
It's pretty basic fingerpicking. There are just 4 patterns repeated through
the entire song. I can't explain the technique much better than this.
You simply roll your hand, plucking each string as needed. I've labeled
the fingers like this:
T->Thumb
1->index finger
2->middle finger
3->ring finger
Note: I did not label the pinky, so just don't use it.

G Pattern           D7 Pattern          Em7 Pattern         C Pattern
e----------------   e----2--------2--   e----3--------3--   e-3--3--------3-|
B----3--------3--   B----1------1----   B----3------3----   B----5------5---|
G----0------0----   G----2----2------   G----4----4------   G----5----5-----|
D---------0------   D-0-----0--------   D-2-----2--------   D---------------|
A-------2--------   A----------------   A----------------   A-------3-------|
E-3--------------   E----------------   E----------------   E---------------|
  T  3  T 1 2 3       T  3  T 1 2 3       T  3  T 1 2 3       3  3  T 1 2 3
     2                   2                   2                   2
                         1                   1                   1

The order of these patterns is:

G(x3) D7(x2) Em7(x2) C(x2)
G(x2) D7(x2) Em7(x2) C(x2)
G(x2) D7(x2) G(x2) D7(x2)

G(x3) D7(x2) Em7(x2) C(x2)
G(x2) D7(x2) Em7(x2) C(x2)
G(x2) D7(x2) G(x2) D7(x2) G(x2) D7(x2)

Then quickly play and mute this chord:
e-3-
B-3-
G-0-
D-0-
A-2-
E-3-

Then there is a pause and a keyboard solo that I have little enough of a
life to also tab out for you, my ungreatful moocher. My guitar is a piece
of crap, but if you have enough frets try moving every note in this
keyboard solo up 12 frets. I think it sounds better.

e------------------------------------------------------------------------|
B--8-7-----------------------------8-7-----------------------------------|
G------9-7-9-7---7-9-7---7-9-7---7-----9-7-9-7-------7-------7-----------|
D--------------9-------9-------9---------------9-7-9---9-7-9---9-7-9-----|
A------------------------------------------------------------------------|
E------------------------------------------------------------------------|

e--------------------------7----------8-----|
B--8-7--------10-8-----------10-------------|
G-------------------------------------------|
D-------------------------------------------|
A-------------------------------------------|
E-------------------------------------------|

e--7(<--let ring)--------------------------------------------------------|
B--8-7-----------------------------8-7-----------------------------------|
G------9-7-9-7---7-9-7---7-9-7---7-----9-7-9-7-------7-------7-----------|
D--------------9-------9-------9---------------9-7-9---9-7-9---9-7-9-----|
A------------------------------------------------------------------------|
E------------------------------------------------------------------------|

Meanwhile the other guitar continues during this solo with the patterns:
G(x2) D7(x2) Em7(x2) C(x2)
G(x2) D7(x2) Em7(x2) C(x2)
G(x2) D7(x2) G(x2) D7(x2)

Then, the solo ends and the guitar goes back to:
G(x2) D7(x2) Em7(x2) C(x2)
G(x2) D7(x2) Em7(x2) C(x2)
G(x2) D7(x2) G(x2) D7(x2) G(x2) D7(x2)

Then quickly play and mute this chord, again:
e-3-
B-3-
G-0-
D-0-
A-2-
E-3-

Now the song abruptly is over.........MBell





Comments


Popular Cake tabs & chords
Is This Love? 1 Bass Tabs
Love You Madly 4 Bass Tabs
Sad Songs And Waltzes Bass Tabs
Walk On By 1 Chords
Comfort Eagle 2 Tabs
Comfort Eagle 5 Tabs
Italian Leather Sofa Tabs
Shell Hang The Baskets Intro Tabs
Thrills Tabs
Bound Away Ukulele


Song lyrics



↑ Back to top | Tablatures and chords are parodies/interpretations of the original songs. You may use it for private study, scholarship, research or language learning purposes only
© 2014 AZChords.com Contact us | Privacy policy | DMCA | Add/correct tabs | Request tabs | Top 50 tabs