>
 >
Cool Blue Reason

Cool Blue Reason Guitar Tabs

Cake - Cool Blue Reason chords, tabs, tablatures, lyrics

Guitar lessons | Add/correct | Request | Top 50 tabs Artists:  A B C D E F G H I J K L M N O P Q R S T U V W X Y Z 0-9

Cool Blue Reason Guitar Tabs – Cake

CD, Sheet music, Poster

Do you like Cool Blue Reason? Share with your friends now
Tabs
Cake


Tuning: Standard

My first tab so please rate! :)

[Acapella]
Verse 1:
Cool blue reason empties on the page
Your colleagues are in prison and your enemies enraged

Verse 2:
Em        D      Em              D
Cool blue reason comes into your world
Em                       D              Em            D
There's two more dead in Texas and it's probably your girls


Chorus:
    A                G                 D
    Cool blue reason wraps around your throat
e|-----------------------------------|
B|--2--------------------3-------3---|
G|--2------------------4---4---2-----|
D|--2----------------5-------4-------|
A|-----------------------------------|
E|-----------------------------------|

    A                                G               D
The minutes change like seasons only 8 more hours to go
e|-----------------------------------------------------|
B|--2------------------------------------3-------3-----|
G|--2----------------------------------4---4---2---2---|
D|--2--------------------------------5-------4---------|
A|-----------------------------------------------------|
E|-----------------------------------------------------|

     G               D
Only 8 more hours to go
e|----------------------|
B|-------3-------3------|
G|-----4---4---2---2----|
D|---5-------4----------|
A|----------------------|
E|----------------------|

     G
Only 8 more hours left to go
e|-----------3-----3-----------------------------|
B|-------3-----3---------------------------------|
G|-----4---4-----4-------------------------------|
D|---5---------------0---------------------------|
A|-----------------------------------------------|
E|------------------------------------------12s0-|



Verse 3:
   Em        D      Em              D
   Cool blue reason comes into your life
e|-----0----------------0-------------|
B|-----0----------------0-------------|
G|------------------------------------|
D|-------------0----------------0-0h2-|
A|---------0h2---2----------0h2-------|
E|-0----------------0-----------------|

        Em               D               Em            D
There's one more dead in Kansas and it's probably your wife
e|----------0--------------------------------0-------------------|
B|----------0--------------------------------0-------------------|
G|---------------------------------------------------------------|
D|-----------------0---------------------------------0-0h2-------|
A|-------------0h2---0h2-------------------------0h2-------------|
E|------0--------------------------------0-----------------------|



Chorus:
   A                         G            D
   Cool blue reason I'm just talking to myself
e|-------------------------------------------|
B|-2-----------------------------3-----3-----|
G|-2---------------------------4---4-----2---|
D|-2-------------------------5-------4-------|
A|-------------------------------------------|
E|-------------------------------------------|

   A                         G           D
   Cool blue reason I'm just rearranging hell
e|-----3----3------------------------------|
B|-----3----3--------------------3-------3-|
G|--2-----2--------------------4---4---2---|
D|--2-----2------------------5-------4-----|
A|-----------------------------------------|
E|-----------------------------------------|

         G             D
I'm just talking to myself
e|-----------------------|
B|-----------3-------3---|
G|---------4---4---2-----|
D|-------5-------4-------|
A|-----------------------|
E|-----------------------|

         G
I'm just talking...
e|-------------------------------|
B|-----------3-------3-------3---|
G|---------4---4---4---4---4---4-|
D|-------5-------5-------5-------|
A|-------------------------------|
E|-------------------------------|

   to myself
e|---3-7-3-------|
B|-3-------------|
G|---------------|
D|---------------|
A|---------------|
E|---------2-----|



Ah no

[Guitar 1] (repeat 2x)
e|----12--12--12-------10--------12--12----12---------10----------|
B|------12-----------10--10----12--12----12-------10------10------|
G|--12------12-----11--------12-----------------11--11--11--11----|
D|----------------------------------------------------------------|
A|----------------------------------------------------------------|
E|----------------------------------------------------------------|

e|--12--12--12--12-------10--------12--12----12-------10----|
B|---------------------10--10----12--12----12-------10------|
G|----12--12--12-----11--------12-----------------11--------|
D|----------------------------------------------------------|
A|----------------------------------------------------------|
E|----------------------------------------------------------|

[Guitar 2]
e|-----0-----------------0---------------0---------------------------------|
B|-----0-----------------0---------------0---------------------------------|
G|-------------------------------------------------------------------------|
D|-------------0-----------------0-0-------------2----------2-4-5-4-2-0----|
A|---------0h2---0h2---------0h2-------------0h2---0h2---------------------|
E|-0-----------------0---------------0-----------------0-------------------|


e|-----0-----------------0---------------0-----------------------|
B|-----0-----------------0---------------0-----------------------|
G|---------------------------------------------------------------|
D|-------------2-----------------0-0-----------------------------|
A|---------0h2---0h2---------0h2---------------------------------|
E|-0-----------------0---------------0--------3-3-2-1-0-----12s0-|

[Guitar 3] [1:29] Enter 5th measure after Guitar 1 and 2 start
e|-------------------------------------|
B|--/7-5~---3--5--------------3--------|
G|---------------4~---4p2p0-2---4------|
D|-------------------------------------|
A|-------------------------------------|
E|-------------------------------------|





Chorus:
   A                G                 D
   Cool blue reason wraps around your throat
e|---------5------------------------|
B|-----5-----5----------3-----3-----|
G|---6---6------------4---4-------4-|
D|-7--------------7-5-------4---5---|
A|----------------------------------|
E|----------------------------------|

A
The minutes change like seasons
e|----------5-------|
B|------5-----5---5-|
G|----6---6-----6---|
D|--7---------------|
A|------------------|
E|------------------|

     G               D
Only 8 more hours to go
e|------------------|
B|-------3-------3--|
G|-----4-------2----|
D|---5-----5-4------|
A|------------------|
E|------------------|

     G               D
Only 8 more hours to go
e|------------------|
B|-------3-------3--|
G|-----4-------2----|
D|---5-----5-4------|
A|------------------|
E|------------------|

     G
Only 8 more hours...            left to go
e|---7-----7-----7---7-----7-----7------------|
B|-----9-----9---------9-----9----------------|
G|-------7-----7---7-----7-----7--------------|
D|--------------------------------------------|
A|--------------------------------------------|
E|--------------------------------------2-----|



[Guitar 1] [2:04]

e|----12--12--12-------10--------12--12----12-------10----|
B|------12-----------10--10----12--12----12-------10------|
G|--12------12-----11--------12-----------------11--------|
D|--------------------------------------------------------|
A|--------------------------------------------------------|
E|--------------------------------------------------------|

e|----12--12--12-------10--------12--12----12---------10----------|
B|------12-----------10--10----12--12----12-------10------10------|
G|--12------12-----11--------12-----------------11--11--11--11----|
D|----------------------------------------------------------------|
A|----------------------------------------------------------------|
E|----------------------------------------------------------------|

e|--12--12--12--12-------10--------12--12----12---------10--------|
B|---------------------10--10----12--12----12-------10------10----|
G|----12--12--12-----11--------12-----------------11--11--11--11--|
D|----------------------------------------------------------------|
A|----------------------------------------------------------------|
E|----------------------------------------------------------------|

e|--12--12--12--12-------10--------12--12----12-------10----|
B|---------------------10--10----12--12----12-------10------|
G|----12--12--12-----11--------12-----------------11--------|
D|----------------------------------------------------------|
A|----------------------------------------------------------|
E|----------------------------------------------------------|

e|----12--12--12-------10--------12--12----12---------10----------|
B|------12-----------10--10----12--12----12-------10------10------|
G|--12------12-----11--------12-----------------11--11--11--11----|
D|----------------------------------------------------------------|
A|----------------------------------------------------------------|
E|----------------------------------------------------------------|

e|--12--12--12--12-------10--------12--12----12-------10----|
B|---------------------10--10----12--12----12-------10------|
G|----12--12--12-----11--------12-----------------11--------|
D|----------------------------------------------------------|
A|----------------------------------------------------------|
E|----------------------------------------------------------|

[Guitar 1] [2:40]
Em D (repeat for rest of song)

Solo:
[Guitars 2 & 3]
e|--------------------------------------------|
B|--------------------------------------------|
G|--------------------------------------------|
D|-0-2-4-5-4-2-0---------------0--------------|
A|-------------------------0h2---2p0----------|
E|---------------0-------------------3-0------|

e|--------------------------------------------|
B|--------------------------------------------|
G|--------------------------------------------|
D|------------0------------0-2-4-5-4-2-0------|
A|--------0h2---2p0---------------------------|
E|--0---------------3---0---------------------|

e|--------------------------------------------|
B|-7-5~---3--5---------------3----------------|
G|--------------4~---4p2p0-2---4--------------|
D|--------------------------------------------|
A|--------------------------------------------|
E|---------------------------------3-3-2-1-0--|

e|--------------------------------------------|
B|--/7-5~---3--5------------------------------|
G|---------------4~---4p2p0-2/7--4------------|
D|--------------------------------------------|
A|--------------------------------------------|
E|---------------------------------3-3-2-1-0--|





Comments


Popular Cake tabs & chords
Friend Is A Four Letter Word Bass Tabs
Open Book Bass Tabs
Commissioning A Symphony In C Chords
Let Me Go Chords
Never There Chords
Never There Drum Tabs
Commisioning Symphony In C (Solo) Tabs
Let Me Go 1 Tabs
Satan Is My Motor Tabs
Wheels Tabs


Song lyrics



↑ Back to top | Tablatures and chords are parodies/interpretations of the original songs. You may use it for private study, scholarship, research or language learning purposes only
© 2014 AZChords.com Contact us | Privacy policy | DMCA | Add/correct tabs | Request tabs | Top 50 tabs