» » »

Cake, Conroy Tabs (ver.1)

Artists:  A B C D E F G H I J K L M N O P Q R S T U V W X Y Z # 

Conroy Tabs (ver.1)

Cake Tabs
 Rating:
4.5/5 (8 votes)
Conroy lessons Tabs too difficult? Try these video lessons and learn fast
1
                -------------------------------------------------------------------------------
                             SONG NAME - Band Name
-------------------------------------------------------------------------------

Edit: Sorry for confusion of some parts being on the wrong string >.<

Tuning: Standard (EADGBe)

(00:14)

(Guitar 1): Plays during intro, and also whenever section "b" is played.
e|--------------------------------------|
B|-15--15----15-15----15--15----13--17--|
G|--------------------------------------|
D|--------------------------------------|
A|--------------------------------------|
E|--------------------------------------|


Guitar 2 (00:23) "Section A"
e|---------------------------------------------------------------------------|
B|---------------------------------------------------------------------------|
G|-2----0-2-3-2----0-2-3-3/5--3--2--0--2-3-2h3p2----0-2-3-2h3p2--------------|
D|---------------------------------------------------------------------------|
A|---------------------------------------------------------------------------|
E|---------------------------------------------------------------------------|

e|---------------------------------------------------------------------------|
B|---------------------------------------------------------------------------|
G|-0-2-3-3/5--3--5/7--5--7/9--7--10------------------------------------------|
D|---------------------------------------------------------------------------|
A|---------------------------------------------------------------------------|
E|---------------------------------------------------------------------------|

(00:43) - Guitar w/ delay "Section B"
e|-------------------------------|
B|-10-8h10p8--8------------------|
G|--------------10-9-------------|   x4
D|-------------------------------|
A|-------------------------------|
E|-------------------------------|

(00:52) REPEAT SECTION A

(01:11) REPEAT SECTION B

(01:21) Guitar 2, "Section C"
e|-------------------------------------------|
B|--6---6---6---5--3--1----------------------|
G|------------------------3---3---3---2------|   x3
D|-------------------------------------------|
A|-------------------------------------------|
E|-------------------------------------------|

(01:49) Guitar 2, "Section A1" (Note A1 is very similar to A, but with the ending 
to bring it back to the first note)

e|---------------------------------------------------------------------------|
B|---------------------------------------------------------------------------|
G|-2----0-2-3-2----0-2-3-3/5--3--2--0--2-3-2h3p2----0-2-3-2h3p2--------------|
D|---------------------------------------------------------------------------|
A|---------------------------------------------------------------------------|
E|---------------------------------------------------------------------------|

e|---------------------------------------------------------------------------|
B|-------------------------------(6)-----------------------------------------|
G|-0-2-3-3/5--3--5/7--5--7/9--7--(2)-----------------------------------------|
D|---------------------------------------------------------------------------|   
A|---------------------------------------------------------------------------|
E|---------------------------------------------------------------------------|
x4 (On finish with regular section A)

| /  slide up
| \  slide down
| h  hammer-on
| p  pull-off
| ~  vibrato
| +  harmonic
| x  Mute note
===============================================================================
            
Submit corrections

comments powered by Disqus
↑ Back to top | Cake Tabs for Conroy. Lyrics for acoustic guitar and electric guitar. 1 Tablatures and chords are parodies/interpretations of the original songs. You may use it for private study, scholarship, research or language learning purposes only