» » »

Amylase Tabs (ver.1)

Artists:  A B C D E F G H I J K L M N O P Q R S T U V W X Y Z # 

Amylase Tabs (ver.1)

Cajun Dance Party
Rating:
5/5 (3 votes)

Hard to play? Try these video lessons and learn fast.
                -------------------------------------------------------------------------------
-------------------------------------------------------------------------------

Tuning: Standard (EADGBe)



INTRO: Am C F

Keyboard part arr. for guitar:

B|10-8---10-8-----------||
G|-----9------9-10-9----||
D|-------------------10-||

VERSE: Am C F

CHORUS: F G G# A

e|--------------|
B|10--12--12-13-|
G|--------------|
D|--------------|
A|8---10--11-12-|
E|--------------|

BRIDGE: Bb G 

e|-------------------------------------|
B|3--------10 11 10--------------------|
G|5^-5-3------------10 10^(11)10-------|
D|-------5-----------------------10 12-|
A|-------------------------------------|
E|-------------------------------------|

e|------------------8------------------|
B|3--------10 11 10---11 10------------|
G|5^ 5 3--------------------10^(11)10--|
D|-------5-----------------------------|                      
A|-------------------------------------|
E|-------------------------------------|

NOT SURE ON THIS PART: (IMPROVISE)
e|------------------10-------------------|
B|---------------11----11----------------|
G|10 12 10 10 12----------12 10 12-------|
D|---------------------------------10 12-|
A|---------------------------------------|
E|---------------------------------------|

e|------------------|
B|3-----------------|
G|5^-5-3-------3-5--|      
D|-------5-3-5------|                      
A|------------------|
E|------------------|

SOLO

e|--------------------------------------------|
B|13^(15)13p11----11----13^(15)13p11----11-13-|
G|-------------12----12--------------12-------|   x4
D|--------------------------------------------|
A|--------------------------------------------|
E|--------------------------------------------|

e|----------------13 10--|
B|13^(15)13p11-----------|      x2
G|-------------12--------|                  
D|-----------------------|
A|-----------------------|
E|-----------------------|


e|----------------13 10 13 15--------------|
B|13^(15)13p11----------------13^(15)13p11-|
G|-------------12--------------------------|
D|-----------------------------------------|      
A|-----------------------------------------| 
E|-----------------------------------------| 

e|--------------------------------------------|
B|13^(15)13p11----11----13^(15)13p11----11-13-|
G|-------------12----12--------------12-------|         
D|--------------------------------------------|       
A|--------------------------------------------| 
E|--------------------------------------------|

e|------------------------------------------------------|
B|13^(15)13p11----11----13^(15)13p11----11--------------| 
G|-------------12----12--------------12-----7-7^(8)p7---|    
D|----------------------------------------------------8-|
A|------------------------------------------------------|
E|------------------------------------------------------|

BRIDGE: Bb Dm D#

Chorus Riff before outro solo which is something like:

e|-------------------|
B|10---5---3---------|
G|12^--7^--5^-5-3----|
D|----------------/5-|
A|-------------------|
E|-------------------|
            
Hard to play? Try these video lessons and learn fast. | Correct




comments powered by Disqus
↑ Back to top | Tablatures and chords are parodies/interpretations of the original songs. You may use it for private study, scholarship, research or language learning purposes only