» » »

Caifanes, Viento Tabs (ver.4)

Artists:  A B C D E F G H I J K L M N O P Q R S T U V W X Y Z # 

Viento Tabs (ver.4)

Caifanes Tabs
 Rating:
4/5 (4 votes)
Viento lessons Tabs too difficult? Try these video lessons and learn fast
                Alright guys, well here is the tab for the song viento
I personally think this is the most accurate tab out there and the best hope u guys like it


Intro:

Riff 1

|---------------------|---------------------|
|---------------------|---------------------|
|-7-7-7-7-7-7-7-7-7-7-|-7-7-7-7-7-7-7-7-7-7-|
|---------------------|---------------------|
|---------------------|---------------------|
|---------------------|---------------------|


   |-----------------|-----------------|
   |-----------------|-----------------|
   |-4-4-4-4-4-4-4-4-|-5-5-5-5-5-5-5-5-|
   |-----------------|-----------------|
   |-----------------|-----------------|
   |-----------------|-----------------|

   C/Riff 1
   |-----------------|-------------------15----|
   |-----------------|-15----------------------|
   |-----------------|----------------------16-|
   |-0---------(0)---|-------------------------|
   |--\-------/------|-------------------------|
   |---\ 1/2 /-------|-------------------------|
This next part is the keyboards during the 1st verst
Listen to it carefully

                        X2
|-5-----------------------|
|---3--5--7---------------|
|-----------7-------------|
|-------------------------|
|-------------------------|
|-------------------------|


Verse:
        v v v ^ ^   v v v ^  ^         v v v ^ ^ v v v ^ ^
 |--------------------------|   |----------------------|
 |--------------------------|   |----------------------|
 |--------------------------| % |----------------------|
 |------4-4---------4-4-----|   |------4-4-------4-4---|
 |--5-5-----5---7-7------7--|   |--2-2-----2-2-2-----2-|
 |--------------------------|   |----------------------|

    V V V ^  ^     V V V ^ ^ 2x
  |--------------|-------------|
  |--------------|-------------|
  |--------------|-------------|
  |--------------|-------------|
  |------5-5-----|------7-7-7--|
  |--3-3------3--|--5-5--------|

Bridge:
  |-------------|---------------|---------------|------------|---------|
  |-------2-----|-------3-------|-------2-------|-------3----|-------5-|
  |-----2-------|-----4---------|-----2---------|-----4------|-----6---|
  |---4---------|---5-----------|---4-----------|---5--------|---7-----|
  |-4-----------|-5-------------|-4-------------|-5----------|-7-------|
  |-------------|---------------|---------------|------------|---------|

|-------------|---------------|---------------|------------|
|-------------|---------------|---------------|------------|
|-------------|---------------|---------------|------------|
|-7-7-7-7-7-7-|-7-7-7-7-9-9-9-|-9-9-9-9-9-9-7-|-7-7-7-7-7--|
|-------------|---------------|---------------|------------|
|-------------|---------------|---------------|------------|

This  is the keyboard part u have to play during the bridge, play it slowly, again, 
to the song

|-5-5-5-5-5-5-5-5-|-3-3-3-3-3-3-3-3-|-5-5-5-5-5-5-5-5-|-3-3-3-3-3-3-3-|
|-----------------|-----------------|-----------------|---------------|
|-----------------|-----------------|-----------------|---------------|
|-----------------|-----------------|-----------------|---------------|
|-----------------|-----------------|-----------------|---------------|
|-----------------|-----------------|-----------------|---------------|


Chorus:
 |-7-7-7-5-5-5-7-7-7-5-5-5-|
 |-7-7-7-7-7-7-7-7-7-7-7-7-|
 |-6-6-6-6-6-6-6-6-6-6-6-6-|
 |-------------------------|
 |-------------------------|
 |-------------------------|

Hope u guys like it, it’s really accurate and the best version
Here’s my email If u guys have questions
            
Submit corrections

comments powered by Disqus
↑ Back to top | Caifanes Tabs for Viento. Lyrics for acoustic guitar and electric guitar. Tablatures and chords are parodies/interpretations of the original songs. You may use it for private study, scholarship, research or language learning purposes only