>
 >
Rayando El Sol

Rayando El Sol Guitar Tabs

Caifanes - Rayando El Sol chords, tabs, tablatures, lyrics

Guitar lessons | Add/correct | Request | Top 50 tabs Artists:  A B C D E F G H I J K L M N O P Q R S T U V W X Y Z 0-9

Rayando El Sol Guitar Tabs – Caifanes

CD, Sheet music, Poster

Do you like Rayando El Sol? Share with your friends now
Tabs
PROPS GO TO: chio

[INTRO]

   G           D              Em7          Cadd9
e-------7----|--------------|--------7---|--------8-8----------
B-----8----8-|-----7--10-10-|-----8----8-|-----8---------------
G--7---------|-77-----------|--9---------|-79----------9-------
D------------|--------------|------------|---------------------
A------------|--------------|------------|---------------------
E------------|--------------|------------|---------------------

   G           Bm7           C9            D            Em
 -------7----|-------77----|------3------|-------55--|--3----0-0-0-0--0-0--------
 -----8------|----7--------|----5-----5--|-3--7------|--3----0-0-0-0--0-0--------
 --7-------7-|-7---------7-|-5------5----|-----------|--0----0-0-0-0--0-0--------
 ------------|-------------|-------------|-----------|--2----2-----2----2--------
 ------------|-------------|-------------|-----------|--2------------------------
 ------------|-------------|-------------|-----------|--0------------------------

[VERSE]	 

              G    C             D      Cadd9
 -------------3----0-------------2-------0--------
 -------------3----1-------------3-------3--------
 -------------0----0-------------2-------0--------
 -------------0----2-------------3-------2--------
 -------------2----3-------------4-------3--------
 -------------3----3------------------------------
   Rayando el sol      rayando por ti

        G                Cadd9         D
 -------------------------------------------5-7--5----------------
 ---------------------------------------------------8--7--5-------
 -------------------------------------------2-4--2----------------
 ---------------------------------------------------5--4--2-------
 -----------------------------------------------------------------
 -----------------------------------------------------------------
   esta pena me duele me quema sin tu amor

                                                |----slow-----|

       Bm               C          D                         (Bm)
 ------------7----------------3----2-------5-5---7--8--10--8--7--------
 ------------7----------------3----3-----------------------------------
 ----------7----------------0--------------2-2---4--5--7---5--4--------
 --------9----------------2--------0-----------------------------------
 -----------------------3----------------------------------------------
 ------7---------------------------------------------------------------
    No me has llamado estoy desesperado

        Bm           C                D 
 ------------------------------------------5-5--5----------
 ----------------------------------------------------------
 ------------------------------------------2-2--2----------
 ----------------------------------------------------------
 ------------------------------------------5-5--5----------
 ----------------------------------------------------------
    son muchas lunas las que te he llorado


[CHORUS]

   G           D              Em7          Cadd9
 -------7----|--------------|--------7---|--------8-8---------
 -----8----8-|-----7--10-10-|-----8----8-|-----8--------------
 --7---------|-77-----------|--9---------|-79----------9------
 ------------|--------------|------------|--------------------
 ------------|--------------|------------|--------------------
 ------------|--------------|------------|--------------------
								  [second time]

   G           Bm7           C9            D                      Em
 -------7----|-------77----|------3------|-------55--|          ------------0----
 -----8------|----7--------|----5-----5--|-3--7------|		----------0------
 --7-------7-|-7---------7-|-5------5----|-----------|		--------0--------
 ------------|-------------|-------------|-----------|		------2----------
 ------------|-------------|-------------|-----------|		----2------------
 ------------|-------------|-------------|-----------|  [2x]	--0--------------



[VERSE]

                                   come in on    1+
                                                      |-fast-|
               G          C                   D   C
 --------------------5-5-----3-3------------------5-5---5/7-5---------------
 --------------------5-5--5--5-5-------------------------------8--7---------
 -------------------------5-----------------------2-2---2/4-2---------------
 -----------------5--------------------------------------------5--4---------
 ---------------------------------------------------------------------------
 --------------3------------------------------------------------------------
  A tu casa yo fui               y no te encontré

       [__________PalmMute_________________________]           fast
        G                         C                D           | 
 ----------3-----3-------------------3-------------------5---5-5/7--5-----7--8--7------
 -------3-----33---3--------------5-----5-1--1-3/5-3-------------------8---------------
 --------------------------------------------------------2---2-2/4--2-----4--5--4------
 ----------------------------------------------------------------------5---------------
 --------------------------------------------------------------------------------------
 --------------------------------------------------------------------------------------
   en el parque en la plaza en el cine yo te    busque


      Bm          C                       D                     Bm7               D
 -------------7--------------------------------55--7--8--10--8--7-7--10--7--8-8--12--8--8/10----------14-14~~--
 ----------7--7---8--------------------------------------------------------------------------------------------
 --------7------7-9----------------------------22--4--5--7---5--4-4--7---4--5-5--9---5--5/7-----------11-11~~--
 -----9--------------------------------------------------------------------------------------------------------
 --------------------------------------------------------------------------------------------------------------
 --------------------------------------------------------------------------------------------------------------
   Te tengo   atrapada entre mi piel y mi alma            ya no puedo tanto quiero estar junto a ti.


[CHORUS]

   G           D              Em7          Cadd9
 -------7----|--------------|--------7---|--------8-8---------
 -----8----8-|-----7--10-10-|-----8----8-|-----8--------------
 --7---------|-77-----------|--9---------|-79----------9------
 ------------|--------------|------------|--------------------
 ------------|--------------|------------|--------------------
 ------------|--------------|------------|--------------------
								 

   G           Bm7           C9            D                      
 -------7----|-------77----|------3------|-------55--|          
 -----8------|----7--------|----5-----5--|-3--7------|		
 --7-------7-|-7---------7-|-5------5----|-----------|		
 ------------|-------------|-------------|-----------|		
 ------------|-------------|-------------|-----------|		
 ------------|-------------|-------------|-----------|  [2x]	(straight to the solo)


[SOLO]

                                                            [light PM]
 --3--5--7--8-------12---5/1212-10--55--12-10-5-5--5-3-2--------10-12-14-10-12----------
 -------------------------------------------------------------10------------------------
 --4--5--7--9--11/12-----5/1212-11--55--12-11-5-5--5-4-2----11--------------------------
 ---------------------------------------------------------------------------------------
 ---------------------------------------------------------------------------------------
 ---------------------------------------------------------------------------------------

  [fast]               [fast]                                 [Em]
 -121212-14-15-15p14---14h15p14----------------------------------------------
 ------------------------------15--------------------------------------------
 --------------------------------14-12-11------------------------------------
 ----------------------------------------12----------------------------------
 ------------------------------------------12-10-9-10-9----------------------
 -------------------------------------------------------10-11-12-------------


[BREAK]

   Emsus           Bm     C           D(i)           Em(i)   Bm7   Cadd9    Dsus2
 --[3]------3-----[2]----[3]----3----[5]------5--|---7-------7--------------------------------
 --[3]----3---3---[3]----[1]--1---1--[7]-----7---|---8-------7-----3--5--8--7--8--8/10--------
 --[0]------------[4]----[0]---------[7]----7----|---9-------7-----5--5--7--7--7--7/9---------
 --[2]------------[4]----[2]---------[7]---7-----|---9-------7--------------------------------
 --[2]------------[2]----[3]---------[5]---------|---7-------9--------------------------------
 --[0]-------------------------------------------|--------------------------------------------



[CHORUS]

   G           D              Em7          Cadd9
 -------7----|--------------|--------7---|--------8-8---------
 -----8----8-|-----7--10-10-|-----8----8-|-----8--------------
 --7---------|-77-----------|--9---------|-79----------9------
 ------------|--------------|------------|--------------------
 ------------|--------------|------------|--------------------
 ------------|--------------|------------|--------------------
								 

   G           Bm7           C9            D                      
 -------7----|-------77----|------3------|-------55--|          
 -----8------|----7--------|----5-----5--|-3--7------|		
 --7-------7-|-7---------7-|-5------5----|-----------|		
 ------------|-------------|-------------|-----------|		
 ------------|-------------|-------------|-----------|		
 ------------|-------------|-------------|-----------|  [3x]    [fourth time to the outro]

[OUTRO]

  G           D            Em          C                    G               D               C        D           G [hold]
 --------------------|---------------------|-----------|--5/7-7--777--8-7-7-5--555--7-5-5-7-3---3-3--2-----------3-------
 --------------------|---------81078-88888-|-8-10-1212-|--7/8-8--888--8-8-8-7--777--8-7-7-8-5---5-5--3---5-5-3-1-0-------
 ------4-5-95-7-7777-|-5-754-7-------------|-----------|-------------------------------------------------5-5-4-2-0-------
 --5-7---------------|---------------------|-----------|-----------------------------------------------------------------
 --------------------|---------------------|-----------|-----------------------------------------------------------------
 --------------------|---------------------|-----------|-----------------------------------------------------------------

 i hope you enjoy this tab from the worst band MANA!





Comments


Popular Caifanes tabs & chords
Celula Que Explota Chords
El Elefante Chords
Viento Chords
Amarrate A Una Escoba Tabs
La Celula Que Explota 1 Tabs
Matenme Porque Me Muero Tabs
Sombras En Tiempos Perdidos Tabs
Aqui No Pasa Nada Ukulele
La Vida No Es Eterna Ukulele
Te Estoy Mirando Ukulele


Song lyrics



↑ Back to top | Tablatures and chords are parodies/interpretations of the original songs. You may use it for private study, scholarship, research or language learning purposes only
© 2014 AZChords.com Contact us | Privacy policy | DMCA | Add/correct tabs | Request tabs | Top 50 tabs