» » »

Matenme Porque Me Muero Tabs (ver.1)

Artists:  A B C D E F G H I J K L M N O P Q R S T U V W X Y Z # 

Matenme Porque Me Muero Tabs (ver.1)

Caifanes
Rating:
0/5 (0 votes)

Hard to play? Try these video lessons and learn fast.
                   Este es el intro que hacen los teclados, esta en G como los acordes


  e ------------------:---7----------------------------:
  b --8---------------:-----10------8------------------:
  g -----7------------:-----------------7--------------:
  d ---------10----9--:---------------------10---9-----:
  a ------------------:--------------------------------:
  e ------------------:--------------------------------:

                          : esta la repites 4 veces :


  y este es el solo:

  e --------7~--3---2~------:--------7~---3-----2/3~--2/3~-------|
  b --------------------5~--:--------------------------------5~--|
  g --2/4~------------------:--2/4~------------------------------|
  d ------------------------:------------------------------------|
  a ------------------------:------------------------------------|
  e ------------------------:------------------------------------|
             *
                             lo tocas y repites *

  Si lo tocas distorcionado se escucha muy bien, escucha la rola,
 para que te hayes con los tiempos de cada nota.

=================================================
Intro de alexis jayr rodriguez pedraza.

 G
 Cuando me muera
               Em
 y me tengan que enterrar,
   G
 quiero que sea
                 Em
 con una de tus fotografias,


 F                   Dm          G
 para que no me de miedo estar abajo,
 F                    Dm              G
 para que no se me olvide como es tu cara,
 F          Dm               G
 para imaginar que estoy contigo,
 F         Dm           G
 y sentirme un poquito vivo.


  G       Bm         Em
 Matenme porque me muero,
  G       Bm         Em
 matenme porque no puedo,
  G       Bm         Em
 matenme porque me muero,
  G       Bm         Em
 matenme porque no puedo.


 Am           C          Bm
 Esta enfermedad es incurable,
 Am           C             Bm        Cm
 esta enfermedad ni con un valium... ­No!


 (G - Em)
 Cuando me muera
 y me tengan que enterrar,
 quiero que sea con dulces
 y no con piedras,


 (F - Dm - G)
 por si alguna vez me buscas,
 estare eternamente lejos,
 como para darte solo flores,
 te guardare mil estrellas.

 Matenme porque me muero...

este intro es  despues de que saul grita asi suena:


e-5--------5-----------5------------5----------------|
a--5--3--2---7--5--3--2--7--5--3--2---7-5--3--2-2-3-2|
d----------------------------------------------------|
g----------------------------------------------------|
b----------------------------------------------------|
E----------------------------------------------------|

se utilizara cuando se indique fig.

fig.A,f#.A,f#,A
                             f#           A
cuando me muera y me tengan que enterrar
                                f#         G
quiero que sea con una de  tus fotografias
                                A   G
paraque no me de miedo estar abajo
                    e                A   G
para que no se me olvide como es tu cara
             e            A      G
para imaginar que estoy contigo
         e           A
y sentirme un poquito vivo
A          c#          f#
matenme por que me muero
A          c#           f#
matenme por que no puedo
A          c#          f#
matenme por que me muero
b              D           c#
esta enfermedad es incurable
b              D                c#
esta enfermedad ni con un valium
F
no

puente:fig.A,f#,A,F#,A
                         f#             A
cuando me muera y me tengan que enterrar
                      f#
quiero que sea con dulces y no con
       G
piedras
            e        A     G
por si alguna ves me buscas
         e              A  G
estare eternamente lejos
             e            A  G
como para darte solo flores
        e         A
te guardare mil estrellas
A          c#           f#
matenme por que me muero
A          c#           f#
matenme por que no puedo
A          c#           f#
matenme por que memuero

liricas A c# f# A c# f# A c# f# A c# f#
            
Hard to play? Try these video lessons and learn fast. | Correct




comments powered by Disqus
↑ Back to top | Tablatures and chords are parodies/interpretations of the original songs. You may use it for private study, scholarship, research or language learning purposes only