» » »

Avientame Tabs (ver.2)

Artists:  A B C D E F G H I J K L M N O P Q R S T U V W X Y Z # 

Avientame Tabs (ver.2)

Caifanes
Rating:
4/5 (2 votes)
Tabs too difficult? Try these video lessons and learn fast.
                Bueno pues esta es mi primer tab, 
es el solo de una gran rola de Caifanes, 
Alejandro Marcovich demuestra 
su maestria en la guitarra con este solo, 

LEGEND
~ vibrato
tr trino







1st Solo

|----8-------7-8-8----7-8-7--333------------------10--12-10----------------|
|----10----------10-------5--555-------------12-13--13-----13-12-13~-13~---|
|----9-----------9---------------------------------------------------------|
|--------------------------------------------------------------------------|
|--------------------------------------------------------------------------|
|--------------------------------------------------------------------------|

|-----------------------------------12-------------------------------------|
|-----12-13~----12-13-12-13-15-13-15--15-13-12-0--17~-0-0--15~-0-0--13~-0-0|
|---14--------14-------------------------------0--17~-0-0--16~-0-0--14~-0-0|
|--------------------------------------------------------------------------|
|--------------------------------------------------------------------------|
|--------------------------------------------------------------------------|

|----------------5-7-5-7-5-7--5-7-5-7-5-7--7-8-7-8-7-8--10-12-10-12-10-----|
|---15-13-12-----5-5-5-5-5-5--6-6-6-6-6-6--8-8-8-8-8-8--12-12-12-12-12-----|
|---16-14-12-----5-5-5-5-5-5--5-5-5-5-5-5--7-7-7-7-7-7--12-12-12-12-12-----|
|--------------------------------------------------------------------------|
|--------------------------------------------------------------------------|
|--------------------------------------------------------------------------|

|-------12~-------10~-----------------------------10----10--13-12-12-12----|
|-----------------------10-9-10-12-10-12-13-12-13----13--------------------|
|---9-9-------9-9----------------------------------------------------------|
|--------------------------------------------------------------------------|
|--------------------------------------------------------------------------|
|--------------------------------------------------------------------------|

|-10-10-10-8-8-8---0-0-10-0-0-8--0-0-10-0-0-7-0-0-5~-----------------------|
|------------------0-0-12-0-0-10-0-0-12-0-0-8-0-0-5~-----------------------|
|--------------------------------------------------------------------------|
|--------------------------------------------------------------------------|
|--------------------------------------------------------------------------|
|--------------------------------------------------------------------------|



2st Solo

|--------------------------------------------------------------------------|
|-8-12-12-8-10-10-10-8-12-12-12-8-10-10-10-8-12-12-12-8-10-10-10-8-12-12-12|
|--------------------------------------------------------------------------|
|--------------------------------------------------------------------------|
|--------------------------------------------------------------------------|
|--------------------------------------------------------------------------|

|--------------------------------------------------------------------------|
|-8-10-10-10--10-13-13-13-10-12-12-12-10-13-13-13-10-12-12-12-10-13-13-13--|
|--------------------------------------------------------------------------|
|--------------------------------------------------------------------------|
|--------------------------------------------------------------------------|
|--------------------------------------------------------------------------|

|--------------------------------------------------------------------------|
|-10-12-12-12-10-13-13-13-10-12-12-12--12-15-15-15-12-13-13-13-12-15-15-15-|
|--------------------------------------------------------------------------|
|--------------------------------------------------------------------------|
|--------------------------------------------------------------------------|
|--------------------------------------------------------------------------|

|--------------------------------------------------------------------------|
|-12-13-13-13-12-15-15-15-12-13-13-13-12-15-15-15-12-13-13-13--0-0-20-0-0-0|
|--------------------------------------------------------------------------|
|--------------------------------------------------------------------------|
|--------------------------------------------------------------------------|
|--------------------------------------------------------------------------|

|--------------------------------------------------------------------------|
|-18-0-0-0-20-0-0-0-18-0-0-0-12-0-0-0-15-0-0-0-12-0-0-0-15-----------------|
|--------------------------------------------------------------------------|
|--------------------------------------------------------------------------|
|--------------------------------------------------------------------------|
|--------------------------------------------------------------------------|

|--------------------------------------------------------------------------|
|-8-12-12-8-10-10-10-8-12-12-12-8-10-10-10-8-12-12-12-8-10-10-10-8-12-12-12|
|--------------------------------------------------------------------------|
|--------------------------------------------------------------------------|
|--------------------------------------------------------------------------|
|--------------------------------------------------------------------------|

|--------------------------------------------------------------------------|
|-8-10-10-10--10-13-13-13-10-12-12-12-10-13-13-13-10-12-12-12-10-13-13-13--|
|--------------------------------------------------------------------------|
|--------------------------------------------------------------------------|
|--------------------------------------------------------------------------|
|--------------------------------------------------------------------------|

|--------------------------------------------------------------------------|
|-10-12-12-12-10-13-13-13-10-12-12-12--12-15-15-15-12-13-13-13-12-15-15-15-|
|--------------------------------------------------------------------------|
|--------------------------------------------------------------------------|
|--------------------------------------------------------------------------|
|--------------------------------------------------------------------------|

|--------------------------------------------------------------------------|
|-12-13-13-13-12-15-15-15-12-13-13-13-12-15-15-15-12-13-13-13--------------|
|---------------------------------------------------------------19-16-0--17|
|--------------------------------------------------------------------------|
|--------------------------------------------------------------------------|
|--------------------------------------------------------------------------|

|--------------------------------------------------------------------------|
|--------------------------------------------------------------------------|
|-14-0--16-12-0--14-10-0--12-9-0--10-7-0--9-5-0--7-4-0---------------------|
|-------------------------------------------------------7tr----7tr-9tr-10tr|
|--------------------------------------------------------------------------|
|--------------------------------------------------------------------------|

|--------------------------------------------------------------------------|
|--------------------------------------------------------------------------|
|-----------------------------4tr-5tr-7tr-5tr-4tr--------------------------|
|-14tr--12tr-10tr-9tr----5tr----------------------10tr--7tr-9tr-10tr---14tr|
|--------------------------------------------------------------------------|
|--------------------------------------------------------------------------|

|--------------------------------------------------------------------------|
|--------------------------------------------------------------------------|
|--------------------------------------------------------------------------|
|-12tr-10tr-9tr------------9tr-10tr-12tr-10tr-9tr----10tr--7tr-9tr-10tr----|
|--------------------------------------------------------------------------|
|--------------------------------------------------------------------------|

|--------------------------------------------------------------------------|
|--------------------------------------------------------------------------|
|----------------------------------------------------14tr----14tr-16tr-17tr|
|-12tr--14tr--17tr--15tr-17tr-15tr--17tr-15tr------------------------------|
|--------------------------------------------------------------------------|
|--------------------------------------------------------------------------|

|--------------------------------------------------------------------------|
|--------------------------------------------------------------------------|
|-17tr-16tr-----16tr-14tr-----14tr-12tr--------12--10--12--14~~------------|
|--------------------------------------------------------------------------|
|--------------------------------------------------------------------------|
|--------------------------------------------------------------------------|
            
Tabs too difficult? Try these video lessons and learn fast.


comments powered by Disqus
↑ Back to top | Tablatures and chords are parodies/interpretations of the original songs. You may use it for private study, scholarship, research or language learning purposes only