>
 >
Afuera 2

Afuera 2 Guitar Tabs

Caifanes - Afuera 2 chords, tabs, tablatures, lyrics

Guitar lessons | Add/correct | Request | Top 50 tabs Artists:  A B C D E F G H I J K L M N O P Q R S T U V W X Y Z 0-9

Afuera 2 Guitar Tabs – Caifanes

CD, Sheet music, Poster

Do you like Afuera 2? Share with your friends now
ChordsTabsTabs v2Tabs v3Ukulele
Caifanes - Afuera (Premios Telehit 2012)



|-----------------------------------------------------------|
|-----------------------------------------------------------|
|-4-2----4-2----2---4-2----4-2----2---4-2----4-2----2-2/4---|
|-----4-------4---------4-------4---------4-------4---------|
|-----------------------------------------------------------|
|-----------------------------------------------------------|

|-----------------------------------------------------------|
|-----------------------------------------------------------|
|-4-2----4-2----2---4-2----4-2----2---4-2----4-2----2-2/4---|
|-----4-------4---------4-------4---------4-------4---------|
|-----------------------------------------------------------|
|-----------------------------------------------------------|

|-----------------------------------------------------------|
|-------2--------2--------2---------2-------2--3-------2-3--|
|-------2--------2--------2---------2-------2--4-------2-4--|
|-----4-2------4-2------4-2-------4-2-------2--4-------2-4--|
|-2-2------2-2------2-2------2-2-------2-------2---------2--|
|-----------------------------------------------------------|

                                 x2
|-|---------------------------------|-------------------------|
|-|---------------------------------|----2-----3---------2-3--|
|-|---------------------------------|----2-----4---------2-4--|
|-|----2--------2-------2-------2---|----2-----4---------2-4--|
|-|--2---5----2---5---2---5---2---5-|-2--------2-----------2--|
|-|0--------0-------0-------0-------|-------------------------|

                                x2
|-|--------------------------------|--------------------------|
|-|--------------------------------|-----7--------------7-----|
|-|--------------------------------|-------7-7-6-7--------7-7-|
|-|----2-------2-------2-------2---|-9-9------------9-9-------|
|-|--2---5---2---5---2---5---2---5-|--------------------------|
|-|0-------0-------0-------0-------|--------------------------|

|-----------------------------------------------------------|
|---------7--------------7-------7-----7-------------7------|
|-6-7-------7-7-6-7--6-6---9-9-9---------7-7-6-7-------7-7--|
|-----9-9--------------------------9-9-----------9-9--------|
|-----------------------------------------------------------|
|-----------------------------------------------------------|

|-----------------------------------------------------------|
|---------7--------------7-------7-x-x-7-7-x-x-7-7-x-x-7-7--|
|-6-7-------7-7-6-7--6-6---9-9-9---x-x-7-7-x-x-7-7-x-x-7-7--|
|-----9-9--------------------------x-x-9-9-x-x-9-9-x-x-9-9--|
|--------------------------------------9-------9-------9----|
|-----------------------------------------------------------|

|-----------------------------------------------------------|
|-x-------7-x-x-7-7-x-x-7-7-x-7-7-7--7-7-7-x-x-7-7-x-x-7-7--|
|-x-9p7-9---x-x-7-7-x-x-7-7-x-7-7-6--6-6-7-x-x-7-7-x-x-7-7--|
|------------------------------------------x-x-9-9-x-x-9-9--|
|----------------------------------------------9-------9----|
|-----------------------------------------------------------|

|-----------------------------------------------------------|
|-x-x-7-7-x-------7-x-x-7-7-x-x-7-7-x-7-7-7--7-7-7---3---3--|
|-x-x-7-7-x-9p7-9---x-x-7-7-x-x-7-7-x-7-7-6--6-6-7-4-4-4-4--|
|-x-x-9-9------------------------------------------5-5-5-5--|
|-----9--------------------------------------------5-5-5-5--|
|--------------------------------------------------3---3----|

|-----------------------------------------------------------|
|-3-3---5-5-5--5-5------------------------------------------|
|-4-4-6-6-6-6--6-6-------11---------11---------------6---7--|
|-5-5-7-7-7-7--7-7--9-12----9h12-11----12---11-9-7h9---9---9|
|-5-5-7-7-7-7--7-7------------------------------------------|
|-----5---5-------------------------------------------------|

|--------------------------2-----|----------------------------|
|-7---------------------2--3-----|----------------------------|
|---7--6h7---6----------2--4-----|----------------------------|
|----------9---7-7/9----2--4-----|----2-------2-------2-------|
|--------------------------2-----|--2---5---2---5---2---5---2-|
|--------------------------------|0-------0-------0-------0---|

   x2                                                 x2
|----|--------2------2-|--------------------------------|-------|
|----|-----2--3----2-3-|--------------------------------|-------|
|----|-----2--4----2-4-|--------------------------------|-------|
|-2--|-----2--4----2-4-|----2-------2-------2-------2---|-------|
|---5|-2------2------2-|--2---5---2---5---2---5---2---5-|-------|
|----|-----------------|0-------0-------0-------0-------|-------|

                                                           x4 
|------------------------------------------------------------|
|-----7--------------7--------------7--------------7-------7-|
|-------7-7-6-7--------7-7-6-7--------7-7-6-7--6-6---9-9-9---|
|-9-9------------9-9------------9-9--------------------------|
|------------------------------------------------------------|
|------------------------------------------------------------|

|-----------------------------------------------------------|
|-------7----------7----------7----------7----------------------|
|-----7---7------7---7------7---7------7---7------------------------|
|9--9-------9--9-------9--9-------9--9-------9-----------------------|
|-----------------------------------------------------------|
|-----------------------------------------------------------|

|-10-7-9-----------10-7-9------------10-7-9-----------------|
|--------10-7-------------10-7--------------10-7-10/12-12-12|
|-------------7----------------7----------------------------|
|---------------9----------------9--------------------------|
|-----------------------------------------------------------|
|-----------------------------------------------------------|

|---10-7-9-----------10-7-9----------10-7-9-----------------|
|----------10-7-------------10-7------------10-7------------|
|---------------7----------------7---------------9h11p9/7---|
|-9---------------9----------------9------------------------|
|-----------------------------------------------------------|
|-----------------------------------------------------------|

|-----------------------------------------------------------|
|-----------------------------------------------------------|
|-7-7-7-77-7-77-7-7-77-7-77-7-7-7-6-4-2-2/4-----------------|
|-----------------------------------------------------------|
|-----------------------------------------------------------|
|-----------------------------------------------------------|

|-----------------------------------------------------------|
|-----------------------------------------------------------|
|-7-7-7-77-7-77-7-7-7-6-7-9-9/11-11-11-11-9-7-6/4-----------|
|-----------------------------------------------------------|
|-----------------------------------------------------------|
|-----------------------------------------------------------|

|-----------------------------------------------------------|
|--------------------------------------------7--------------|
|------11-11-------11-9---11-11-9b-9-9-7-9p7---7------------|
|-9-12--------9-12--------12-12------------------9----------|
|-----------------------------------------------------------|
|-----------------------------------------------------------|

|--------------------------------------10-------------------|
|---------------------12----10------12----10--12-10----12-10|
|------11--11-11---11----11------11-----------------11------|
|-9-12------------------------------------------------------|
|-----------------------------------------------------------|
|-----------------------------------------------------------|

|------------------7---10---7---10-----7----------7---------|
|--------------------7--------7----7-----7-10-10----7-10-10-|
|-11/9--7h9-7h9-7-------------------------------------------|
|-----------------------------------------------------------|
|-----------------------------------------------------------|
|-----------------------------------------------------------|

|-7----------7-------------------------------14-------------|
|---7-10-10----10-7---------12-10--12-10--10----10-12-------|
|-------------------9-7---11---------------------------11---|
|-----------------------------------------------------------|
|-----------------------------------------------------------|
|-----------------------------------------------------------|

|-10-10-----------10------12-10-----12b-12-10---12-10-------|
|--------12-10--12----12--------12--------------------12----|
|-----------------------------------------------------------|
|-----------------------------------------------------------|
|-----------------------------------------------------------|
|-----------------------------------------------------------|

|-----------------------------------------------------------|
|-----------------------------------------------------------|
|-7-7-7-77-7-77-7-7-77-7-77-7-7-7-6-4-2-2/4-----------------|
|-----------------------------------------------------------|
|-----------------------------------------------------------|
|-----------------------------------------------------------|

|-----------------------------------------------------------|
|-----------------------------------------------------------|
|-7-7-7-77-7-77-7-7-7-6-7-9-9/11-11-11-11-9-7-6/4-----------|
|-----------------------------------------------------------|
|-----------------------------------------------------------|
|-----------------------------------------------------------|

|-----------------------------------------------------------|
|-----------------------------------------------------------|
|-7-7-7-77-7-77-7-7-77-7-77-7-7-7-6-4-2-2/4-----------------|
|-----------------------------------------------------------|
|-----------------------------------------------------------|
|-----------------------------------------------------------|

|-----------------------------------------------------------|
|-----------------------------------------------------------|
|-7-7-7-77-7-77-7-7-7-6-7-9-9/11-11-11-11-9-7-6/4-----------|
|-----------------------------------------------------------|
|-----------------------------------------------------------|
|-----------------------------------------------------------|

|--------------------------------------------------12-10b---|
|------------10--8-7------------------10h12-10--------------|
|----9-9/11-----------9-7------9-9/11----------11-----------|
|-12-----------------------12-------------------------------|
|-----------------------------------------------------------|
|-----------------------------------------------------------|

|-----------------------------------------------------------|
|-12-10-12-----------------------------------2----------2-2-|
|----------11-9-7-9p7-------------4-4--4p2-4----4---2h4-----|
|---------------------9-7-9---2/4---------------------------|
|-----------------------------------------------------------|
|-----------------------------------------------------------|

|--------10--7--10b-7--5-5--7-9--7------------------------------2|
|-2h3-----7--7--7---7--5-5--7-7--7--10~~7--10~~7--5-5--7-5--3-3--|
|-----------------------------------11~~7--11~~7--6-6--7-6--4----|
|------9---------------------------------------------------------|
|----------------------------------------------------------------|
|----------------------------------------------------------------|

|-10b-7-7--10b-7-7--5-5--7-9--7----------------------------------|
|-7---7-7--7---7-7--5-5--7-7--7--10~~7--10~~7--------------------|
|--------------------------------11~~7--11~~7--9-7----9-7--------|
|--------------------------------------------------9------9-7----|
|----------------------------------------------------------------|
|----------------------------------------------------------------|


                                                           x4 
|------------------------------------------------------------|
|-----7--------------7--------------7--------------7-------7-|
|-------7-7-6-7--------7-7-6-7--------7-7-6-7--6-6---9-9-9---|
|-9-9------------9-9------------9-9--------------------------|
|------------------------------------------------------------|
|------------------------------------------------------------|


|------------------------------------------------------------|
|-------7-------7-------7-------7-------8-7---7-8-7-----8-7--|
|-----7-------7-------7-------7-------7---------------7------|
|-9-9-----9-9-----9-9-----9-9-------9-------9-------9--------|
|------------------------------------------------------------|
|------------------------------------------------------------|

|------------------------------------------------------------|
|---7-8-7----------------------------------------------------|
|------------------------------------------------------------|
|-9-------9--------------------------------------------------|
|------------------------------------------------------------|
|------------------------------------------------------------|





Comments


Popular Caifanes tabs & chords
Dioses Ocultos Chords
El Comunicador Chords
La Celula Que Explota By Caifanes Chords
La Negra Tomasa Chords
Afuera 1 Tabs
Amarrate Una Escoba Vuela Lejos Tabs
Ayer Me Dijo Un Ave 4 Tabs
Comunicador Tabs
Rayando El Sol Tabs
Nada Ukulele


Song lyrics



↑ Back to top | Tablatures and chords are parodies/interpretations of the original songs. You may use it for private study, scholarship, research or language learning purposes only
© 2014 AZChords.com Contact us | Privacy policy | DMCA | Add/correct tabs | Request tabs | Top 50 tabs