» » »

Caifanes, Afuera Tabs (ver.2)

Artists:  A B C D E F G H I J K L M N O P Q R S T U V W X Y Z # 

Afuera Tabs (ver.2)

Caifanes Tabs
 Rating:
4.2/5 (5 votes)
Afuera lessons Tabs too difficult? Try these video lessons and learn fast
                Caifanes-Afuera

thanks to dannyzerozerozero your cover helped alot
its not perfect but its better than the other tabs

(/) Slide Up  (\) Slide Down  (h) Hammer On  (p) Pull Off  (b) Bend (r) Release (v) Vibrato

E|------------------|------------------|------------------|----|
B|------------------|------------------|------------------|----|
G|------------------|------------------|------------------|----|
D|-9-7------9-7---7-|-9-7------9-7---9-|-9-7------9-7---9-|-9--|
A|-----9--------9---|-----9--------9---|-----9--------9---|----|
E|------------------|------------------|------------------|----|

E|---------|---------|---------|---------|------|
B|---------|---------|---------|---------|------|
G|-----4-7-|-----4-7-|-----4-7-|-----4-7-|------|
D|---4---7-|---4---7-|---4---7-|---4---7-|------|
A|-2-----5-|-2-----5-|-2-----5-|-2-----5-|-2b3--|
E|---------|---------|---------|---------|------|


  (8 times)       (8 times)
E|---------|-----|----------|
B|---------|-----|----------|
G|---------|-----|----------|
D|-----2-0-|-----|-----2-0--|
A|---2-----|-2b3-|---2------|
E|-0-------|-----|-0--------|


     (3 times)
E|--------------------|-----------------------------|
B|--------------------|-----------------------------|
G|-----11-------------|-------11-9-9----11-|--------|     ] 4 times togheter
D|-9-9----12-12-11-12-|-11-11--------11-------------|
A|--------------------|-----------------------------|
E|--------------------|-----------------------------|

E|---------|---------|---------|----------|
B|-------7-|-------7-|-------7-|-------7--|
G|-----9---|-----9---|-----9---|-----9----|
D|-9-9-----|-9-9-----|-7-7-----|-7-7------|
A|---------|---------|---------|----------|
E|---------|---------|---------|----------|

E|------------------|-----------|----------------------|
B|-----7---7--------|-7---------|----------------------|
G|---7---7---7--7b8-|---7-------|-11p9-7-9-7-6---------|
D|-9----------------|-----9-7-9-|--------------7--7/9--|
A|------------------|-----------|----------------------|
E|------------------|-----------|----------------------|


  (8 times)       (8 times)
E|---------|-----|---------|
B|---------|-----|---------|
G|---------|-----|---------|
D|-----2-0-|-----|-----2-0-|
A|---2-----|-2b3-|---2-----|
E|-0-------|-----|-0-------|


  (3 times)
E|--------------------|-----------------------|
B|--------------------|-----------------------|
G|-----11-------------|-------11-9-9----11----|   ](4 times togheter)
D|-9-9----12-12-11-12-|-11-11--------11-------|
A|--------------------|-----------------------|
E|--------------------|-----------------------|

E|---------|---------|---------|----------|
B|-------7-|-------7-|-------7-|-------7--|
G|-----7---|-----7---|-----9---|-----9----|
D|-9-9-----|-9-9-----|-7-7-----|-7-7------|
A|---------|---------|---------|----------|
E|---------|---------|---------|----------|

E|-10-7-9----------|-10-7-9----------|-10-7-9------------|-10-7-9----------|
B|--------10-7-----|--------10-7-----|--------10-7-10/12-|--------10-7-----|
G|-------------9-7-|-------------9-7-|-------------------|-------------9-7-|
D|-----------------|-----------------|-------------------|-----------------|
A|-----------------|-----------------|-------------------|-----------------|
E|-----------------|-----------------|-------------------|-----------------|

E|-10-7-9-------------|
B|--------10-7--------|
G|-------------9-7b8--|
D|--------------------|
A|--------------------|
E|--------------------|


G|-7-7-7-7-7-7-7-7-7-7-7-7-7-7-7-7-6-4-2-2/4-|-7-7-7-7-7-7-7-7-6-7-9/11-11--11--11-|-


E|---------|--------|-9---9---9---------|---9---9---9---------|---9---9---9---|
B|---------|--------|-7---7---7---------|---7---7---7---------|---7---7---7---|
G|-9-7-6-4-|-7/9--9-|---7---7---7/11-11-|-7---7---7---7/11-11-|-7---7---7-----|
D|---------|--------|-------------------|---------------------|---------------|
A|---------|--------|-------------------|---------------------|---------------|
E|---------|--------|-------------------|---------------------|---------------|


E|-----------|
B|-----------|
G|-6b7--6b7--|
D|-----------|
A|-----------|
E|-----------|


E|---9---9-----|------------------------------|-------------------------|
B|---7---7-----|------------------------------|-------------------------|
G|-7---7---7b8-|-7-7h9-11-11--11-11--11-11/16-|-11-11--11-11--11-11/16--|
D|-------------|------------------------------|-------------------------|
A|-------------|------------------------------|-------------------------|
E|-------------|------------------------------|-------------------------|


E|------------------------------|---------------------------------|
B|------------------------------|---------------------------------|
G|-11-11--11-11--11-11----------|---------------------------------|
D|---------------------14b15-14b|-12b13-------11----11-12--12b13--|
A|------------------------------|-------12h14----14---------------|
E|------------------------------|---------------------------------|

E|-------------------------|-------------|------------------|
B|-------------------------|-------------|------------------|
G|-16b17------9-7-9-7------|-4b5-2---4b5-|-9-7---9-7--------|
D|--------------------9b10-|-------4-----|-----9-----9-7-9--|
A|-------------------------|-------------|------------------|
E|-------------------------|-------------|------------------|

E|--------------------|---------------------|
B|--------------------|---------------------|
G|-----11-------------|-------11-9-9----11--|
D|-9-9----12-12-11-12-|-11-11--------11-----|
A|--------------------|---------------------|
E|--------------------|---------------------|

E|---------|---------|---------|---------|---------|----|
B|-------7-|-------7-|-------7-|-------7-|-----7---|----|
G|-----7---|-----7---|-----9---|-----9---|---7---7-|----|
D|-9-9-----|-9-9-----|-7-7-----|-7-7-----|-9-------|-9\-|
A|---------|---------|---------|---------|---------|----|
E|---------|---------|---------|---------|---------|----|
            
Submit corrections

comments powered by Disqus
↑ Back to top | Caifanes Tabs for Afuera. Lyrics for acoustic guitar and electric guitar. Tablatures and chords are parodies/interpretations of the original songs. You may use it for private study, scholarship, research or language learning purposes only