>
 >
Afuera

Afuera Guitar Tabs

Caifanes - Afuera chords, tabs, tablatures, lyrics

Guitar lessons | Add/correct | Request | Top 50 tabs Artists:  A B C D E F G H I J K L M N O P Q R S T U V W X Y Z 0-9

Afuera Guitar Tabs – Caifanes

CD, Sheet music, Poster

Do you like Afuera? Share with your friends now
ChordsTabsTabs v2Tabs v3Ukulele
#------------------------------------------------------------------------------##
Bueno, ahi esta otra vez "Afuera" de Caifanes. Esta escrita totalmente por
compases continuos. Hay que guiarse por la letra, y no por la separacion de
la tablatura. Si alguien nota algun error que me lo haga saber en

============================================================================
w = unidad: redonda             W = silencio del mismo valor
h = mitad: blanca               H = silencio del mismo valor
q = cuarta: negra               Q = silencio del mismo valor
e = octava: corchea             E = silencio del mismo valor
============================================================================

   Tacet
e|----------------------|---------------------|-----------------------|----|
B|----------------------|---------------------|-----------------------|----|
G|----------------------|---------------------|-----------------------|----|
D|--9--7-------9-7---7--|-9--7-------9-7---7--|---9--7-------9-7---7--|-9--|
A|--------9--------9----|-------9--------9----|---------9--------9----|----|
E|----------------------|---------------------|-----------------------|----|

Aqui entran los teclados con un sonido suave e interminable desde B hasta B
de la siguiente octava, completando con D y F# para un Bm
  (Bm)
   Bm
e|----------------------|---------------------|-----------------------|----|
B|----------------------|---------------------|-----------------------|----|
G|----------------------|---------------------|-----------------------|----|
D|--9--7-------9-7---7--|-9--7-------9-7---7--|---9--7-------9-7---7--|-9--|
A|--------9--------9----|-------9--------9----|---------9--------9----|----|
E|----------------------|---------------------|-----------------------|----|

(Cambio a piano electrico)
      (Em7)     (Em7)     (Em7)     (Em)
  Bm   Em7  Bm   Em7  Bm   Em7  Bm   Em
|-------------------|--------------------|
|-------------------|--------------------|
|-------------------|--------------------|
|-------------------|--------------------|
|-------------------|--------------------|
|-------------------|--------------------|
  E    Q.   E    Q.    E    Q.   E    Q.

		(BDF#)                      (DF#)(BF#)(DF#)
  Bm            Bm        Bm                Bm
|-------------|---------|-----------------|----------------|
|-------------|---------|-----------------|----------------|
|-------------|---------|-----------------|----------------|
|-------------|---------|-----------------|----------------|
|-------------|---------|-----------------|----------------|
|-------------|---------|-----------------|----------------|
  Muchos anios uno cree, que el caer es levantarse, y de re-pente
			   (GBE)
  Em                       Em
|------------------------|--------------------------|
|------------------------|--------------------------|
|------------------------|--------------------------|
|-------2-0---------2-0--|-------2-0----------2--0--|
|-----2-----------2------|-----2-----------2--------|
|--0-----------0---------|--0-----------0-----------|
 -pente,                                   ya no te
			  (F#A#C#)
  F#                       F#
|-------------------------|------------------------|
|-------------------------|------------------------|
|-------------------------|------------------------|
|--------2-0---------2-0--|-------2-0---------2-0--|
|------2-----------2------|-----2-----------2------|
|--0------------0---------|--0-----------0---------|
  paras.

			    (B)(DF#)         (DF#)(BF#)(DF#)
  Bm              Bm        Bm               Bm
|---------------|---------|----------------|---------------|
|---------------|---------|----------------|---------------|
|---------------|---------|----------------|---------------|
|---------------|---------|----------------|---------------|
|-2-------------|---------|-2--------------|---------------|
|---------------|---------|----------------|---------------|
  Que el amor es temporal, que todo te puede pasar, y de re-pente


  Em                       Em
|------------------------|--------------------------|
|------------------------|--------------------------|
|------------------------|--------------------------|
|-------2-0---------2-0--|-------2-0----------2--0--|
|-----2-----------2------|-----2-----------2--------|
|--0-----------0---------|--0-----------0-----------|
 -pente,                                  estas muy

  F#                       F#
|------------------------|------------------------|
|------------------------|------------------------|
|------------------------|------------------------|
|-------2-0---------2-0--|-------2-0---------2-0--|
|-----2-----------2------|-----2-----------2------|
|--0-----------0---------|--0-----------0---------|
  solo.

  (B|-10-7-9------------|
R>|--------10-7-------|
R>|-------------9-7---|
R>|-------------------|
R>|-------------------|
R>|-------------------|
    -------w----------|

    Version video:
    Tacet
V>|-10-7-9-----------10--7-9----------|-10-7-9----------|
V>|--------10-7--------------10-7-----|--------10-7-----|
V>|-------------9-7---------------9-7-|-------------9-7-|
V>|-----------------------------------|-----------------|
V>|-----------------------------------|-----------------|
V>|-----------------------------------|-----------------|

V>|-----------------------|----------|
V>|-----------------------|----------|
V>|-7-777-7-777-7-777-7-77|76--------|
V>|-----------------------|---9-7-9--|
V>|-----------------------|----------|
V>|-----------------------|----------|

V>|-------------------------------------------------------------------------->
V>|-------------------------------------------------------------------------->
V>|---6-7-777-7-777-7-777-7-776-7-9-11-111111-11-111111-11-111111-11-9-7-6--->
V>|-9----------------------------------------------------------------------9->
V>|-------------------------------------------------------------------------->
V>|-------------------------------------------------------------------------->


**------**

"SOLO"
--------------------------------------------------|
E |--------------------|   |----------------------|
B |--------------------|   |----------------------|
G |--7--7--7--7-7-7-7--| % |--7-7-7-7-6-4-2-2/4---|
D |--------------------|   |----------------------|
A |--------------------|   |----------------------|
E |--------------------|   |----------------------|

E |-------------------------|----------------------------|
B |-------------------------|----------------------------|
G |--7-7-7-7-6-7-9/11--11-11|--11--9--7--6-4-------7--9--|
D |-------------------------|----------------------------|
A |-------------------------|----------------------------|
E |-------------------------|----------------------------|

E |-------------------------|----------------------------|
B |-------------------------|----------------------------|
G |--/11--11---11--11-9-7-9-|-9/11--11--11--11-----7--9--|
D |-------------------------|----------------------------|
A |-------------------------|----------------------------|
E |-------------------------|----------------------------|

E |-------------------------|----------------------------|
B |-------------------------|----------------------------|
G |--/11--11---11--11-14-12-|-11-12-11~~~~~--------7--9--|
D |-------------------------|----------------------------|
A |-------------------------|----------------------------|
E |-------------------------|----------------------------|
				 h  p
E |-------------------------|----------------------------|
B |-------------------------|----------------------------|
G |--/11--11-------14----12-|--11^12^11---9--7----7--9---|
D |-------------------------|----------------------------|
A |-------------------------|----------------------------|
E |-------------------------|----------------------------|
		h
E |-------------------------|----------------------------|
B |-----------10^12-----10--|---------------------12--10-|
G |--/11--11----------------|--11~~~~~-------------------|
D |-------------------------|----------------------------|
A |-------------------------|----------------------------|
E |-------------------------|----------------------------|

E |-------------------------|----------------------------|
B |--12--10--12-------------|----------------------------|
G |-------------11-----9--7-|--9--7----------------------|
D |-------------------------|---------9--7--9------------|
A |-------------------------|----------------------------|
E |-------------------------|----------------------------|

E |-------------------------|
B |-------------------------|
G |------------------6--~~~~|
D |-----9--9---7--9-----9---|
A |--/9---------------------|
E |-------------------------|

**------**

<------|.............
<-0-2--|.3....3......
<------|.............
<------|.............
<------|....2...2....
<------|.............

  Bm                                    D
|------------------------------------------------|
|-3----3----3----3----3---3----3---3----7----7---|
|------------------------------------------------|
|------------------------------------------------|
|----2---2-----2---2----2---2----2---2-----5---5-|
|------------------------------------------------|

  Bm                                    D
|------------------------------------------------|
|-3----3----3----3----3---3----3---3----7----7---|
|------------------------------------------------|
|------------------------------------------------|
|----2---2-----2---2----2---2----2---2-----5---5-|
|------------------------------------------------|

  Bm                                    A
|------------------------------------------------|
|-3----3----3----3----3---3----3---3----2----2---|
|------------------------------------------------|
|------------------------------------------------|
|----2---2-----2---2----2---2----2---2-----0---0-|
|------------------------------------------------|

  Bm                                        Bm C#m
|------------------------------------------------|
|-3----3----3----3----3---3----3---3--------3--5-|
|------------------------------------------------|
|------------------------------------------------|
|----2---2-----2---2----2---2----2---------------|
|------------------------------------------------|

  D                                    G
|------------------------------------------------|
|-7----7----7----7----7---7----7---7---12---12---|
|------------------------------------------------|
|------------------------------------------------|
|----5---5-----5---5----5---5----5---5----10--10-|
|------------------------------------------------|

  D                                    G
|------------------------------------------------|
|-7----7----7----7----7---7----7---7---12---12---|
|------------------------------------------------|
|------------------------------------------------|
|----5---5-----5---5----5---5----5---5----10--10-|
|------------------------------------------------|

  D                                    C#m
|------------------------------------------------|
|-7----7----7----7----7---7----7---7----5----5---|
|------------------------------------------------|
|------------------------------------------------|
|----5---5-----5---5----5---5----5---5-----4---4-|
|------------------------------------------------|

  Bm
|------------------------------------------------|
|-3----3----3----3----3---3----3---3----2---2----|
|------------------------------------------------|
|------------------------------------------------|
|----2---2-----2---2----2---2----2---2----0---0--|
|------------------------------------------------|

  Bm                 A       Bm                   A       Bm
|-10--7-7--10--7-7---5-5-7-8-7----5--2-2--5--2-2--0-0-2-3-2--|
|--7--7-7---7--7-7---5-5-7-8-7----7--3-3--7--3-3--2-2-3-5-3--|
|------------------------------------------------------------|
|------------------------------------------------------------|
|------------------------------------------------------------|
|------------------------------------------------------------|

  Bm                 A       Bm                   A       Bm
|-10--7-7--10--7-7---5-5-7-8-7----5--2-2--5--2-2--0-0-2-3-2--|
|--7--7-7---7--7-7---5-5-7-8-7----7--3-3--7--3-3--2-2-3-5-3--|
|------------------------------------------------------------|
|------------------------------------------------------------|
|------------------------------------------------------------|
|------------------------------------------------------------|
  (B





Comments


Popular Caifanes tabs & chords
La Negra Tomasa Bass Tabs
Celula Que Explota Chords
Dioses Ocultos Chords
El Negro Cosmico Chords
Celula Que Explota Tabs
Detras De Ti Tabs
Dioses Ocultos Tabs
Viento 2 Tabs
Amanece Ukulele
Nubes Ukulele


Song lyrics



↑ Back to top | Tablatures and chords are parodies/interpretations of the original songs. You may use it for private study, scholarship, research or language learning purposes only
© 2014 AZChords.com Contact us | Privacy policy | DMCA | Add/correct tabs | Request tabs | Top 50 tabs