» » »

Cage The Elephant, Shake Me Down Tabs (ver.7)

Artists:  A B C D E F G H I J K L M N O P Q R S T U V W X Y Z # 

Shake Me Down Tabs (ver.7)

Cage The Elephant Tabs
Rating:
4/5 (3 votes)
Shake Me Down lessons Tabs too difficult? Try these video lessons and learn fast
                e|-------------|
B|----5----5---|
G|---6-6--6-6--|  (Riff 1)
D|--7----6-----|
A|-------------|
E|-------------|

Shake me down
Not a lot of people left around
Who knows now
Softly laying on the ground, ooooh
Not a lot people left around, ooooh ooooh

D|--7777----|
A|--7777----|
E|--5555----|

e|----5----4|
B|---5-5--5-|
G|--6----6--|    (Riff 2)
D|----------|
A|----------|
E|----------|

In my life, I have seen
People walk into the sea
Just to find memories
Plagued by constant misery
Their eyes cast down
Fixed upon the ground
Their eyes cast down

E    E    E  E    E     E  E   E
I'll keep my eyes fixed on the sun

(Riff 1)
Shake me down
Cut my hair on silver cloud
Broken sound
Softly laying on the ground, ooooh
Not a lot people left around, ooooh ooooh

e|--------------------------|
B|--------------------------|
G|--------66666-------44444-|
D|--77777-66666-44444-44444-| <-- 3x
A|--77777-44444-44444-22222-|
E|--55555-------22222-------|

e|---------------------|
B|---------------------|
G|-------66666---------|
D|-77777-66666-4-4-4-4-|
A|-77777-44444-4-4-4-4-|
E|-55555-------2-2-2-2-|

In my past, bittersweet
There's no love between the sheets
Taste the blood, broken dreams
Lonely times indeed
With eyes cast down
Fixed upon the ground
Eyes cast down

E    E    E  E    E     E  E   E
I'll keep my eyes fixed on the sun

e|----------------------|
B|----------------------|
G|----------------------|
D|-777-6-4-6-2-2-222222-| (Riff 3)
A|-777-6-4-6-2-2-222222-|
E|-555-4-2-4-0-0-000000-|

Turn back now its time for me to let go (Riff 3)
Way down had to find a place to lay low (Riff 3)
Lampshade turned around into a light post (Riff 3)

e|---------|    e|---------| 
B|---------|    B|---------|
G|-----6---|    G|---------|
D|-777-6-6-| 3x D|-4444444-|  <---play this all twice
A|-777-4-6-|    A|-4444444-|
E|-555---4-|    E|-2222222-|

e|-------------------|
B|-------------------|
G|-------------------|   
D|-2222-4444-7777777-|   3x
A|-2222-4444-7777777-|
E|-0000-2222-5555555-|

Walk around the corner
Never saw it coming still
I try to make a move
It almost stopped me from belief
I don't wanna know the future
But I'm like rolling thunder

e|-5--4--0--2--|-5--4------------------|
B|-5--4--0--2--|-5--4------------------|
G|-6--6--1--3--|-6--6------------------|
D|-7--6--2--4--|-7--6--2222222-4444444-|
A|-7--4--2--4--|-7--4--2222222-4444444-|
E|-5-----0--2--|-5-----0000000-2222222-|

e|----------------------------------|-------------------|
B|----------------------------------|-------------------|
G|----------6666666-----------------|----------66666666-|
D|-77777777-6666666-2222222-4444444-|-77777777-66666666-|
A|-77777777-4444444-2222222-4444444-|-77777777-44444444-|
E|-55555555---------0000000-2222222-|-55555555----------|

Even on a cloudy day (x7)

E    E    E  E    E     E  E
I'll keep my eyes fixed on the
E    E    E  E    E     E  E
I'll keep my eyes fixed on the
E    E    E  E    E     E  E   E
I'll keep my eyes fixed on the sun

(Riff 1)
Shake me down, not a lot of people left around oooh
            
Submit corrections

comments powered by Disqus
↑ Back to top | Cage The Elephant Tabs for Shake Me Down. Lyrics for acoustic guitar and electric guitar. Tablatures and chords are parodies/interpretations of the original songs. You may use it for private study, scholarship, research or language learning purposes only