» » »

Cage The Elephant, Right Before My Eyes Tabs (ver.1)

Artists:  A B C D E F G H I J K L M N O P Q R S T U V W X Y Z # 

Right Before My Eyes Tabs (ver.1)

Cage The Elephant Tabs
Rating:
0/5 (0 votes)
Right Before My Eyes lessons Tabs too difficult? Try these video lessons and learn fast
                
P Pluck
P.M. Palm Mute
A Arpeggio

Standard Tuning

------|---------|--------------------|----------------------------------------|
------|-4/6-----|--------------------|----------------------------------------|
------|-8/10----|-10--------6----5---|----------------------------------------|
------|---------|-11---10---8----6---|----------------------------------------|
------|---------|------8-------------|----------------------------------------|
------|---------|------x-------------|----------------------------------------|
        P        Intro Chords P.M.

------|-x-------------------|-------------------------------------------------|
------|-9-------------------|-------------------------------------------------|
------|-10--------6----5----|-------------------------------------------------|
------|-11---10---8----6----|-------------------------------------------------|
------|------8--------------|-------------------------------------------------|
------|------x--------------|-------------------------------------------------|
       Verse Chords P.M.

------|-x--------------------|------------------------------------------------|
------|-9--------------------|------------------------------------------------|
------|-10---5---6---3---5---|------------------------------------------------|
------|-11---6---8---4---6---|------------------------------------------------|
------|----------------------|------------------------------------------------|
------|----------------------|------------------------------------------------|
        Chorus Chords P.M.

------|---------------|--|-----------|--|-------------------------------------|
------|-2-------------|--|-4---------|--|-------------------------------------|
------|-x-------------|--|-x---------|--|-------------------------------------|
------|-4------8------|--|-6-----8---|--|-------------------------------------|
------|-4------8------|--|-6-----8---|--|-------------------------------------|
------|-x------x------|--|-x-----x---|--|-------------------------------------|
        Bridge Chords

------|--------------------------|--|--4----|---------------------------------|
------|--------------------------|--|--4----|---------------------------------|
------|--------------------------|--|--x----|---------------------------------|
------|-x-----x----x----x----x---|--|--6----|---------------------------------|
------|-11----6----8----4----6---|--|--6----|---------------------------------|
------|-9-----4----6----2----4---|--|--x----|---------------------------------|
        Outro Chorus Chords P.M.       A
            
Submit corrections

comments powered by Disqus
↑ Back to top | Cage The Elephant Tabs for Right Before My Eyes. Lyrics for acoustic guitar and electric guitar. Tablatures and chords are parodies/interpretations of the original songs. You may use it for private study, scholarship, research or language learning purposes only