» » »

Lotus Bass tabs (ver.1)

Artists:  A B C D E F G H I J K L M N O P Q R S T U V W X Y Z # 

Lotus Bass tabs (ver.1)

Cage The Elephant
Rating:
5/5 (1 vote)

Hard to play? Try these video lessons and learn fast.
                -------------------------------------------------------------------------------
			     Cage the Elephant - Lotus
-------------------------------------------------------------------------------


Tuning:

Verse 1:

   |V.Fast|
   |Slides|
G|-----------------4h5h6-6-6---------------|
D|-----------4h5h6-----------6p5p4-6p5p4---|
A|-2/4--2/4--------------------------------| x7
E|-----------------------------------------|

On the 8th time go:

G|-----------------4h5h6-|
D|-----------4h5h6-------|
A|-2/4--2/4--------------| 
E|-----------------------|

Chorus:

G|----------------|
D|----------------|
A|-5-5-5----------| x4
E|---------5-5-5--|

G|---------7----------------|
D|-------7---7---------7----|
A|-5-5-5--------------------| x4
E|-------------5-5-5-3---5--|

Verse 2:

G|-----------4h5h6-6-6---------------|
D|-----4h5h6-----------6p5p4-6p5p4---|
A|-2-2-------------------------------| x7
E|-----------------------------------|

On the 8th time go:

G|-----------4h5h6-|
D|-----4h5h6-------|
A|-2-2-------------| 
E|-----------------|

Chorus 2: Same as first

Verse 3: No bass

Guitar solo, alternate between:

G|------------------------------6---|
D|----------------------------6---6-|
A|--4xxxx-4xxxx-4xxxx-4xxxx-4-------|
E|----------------------------------|

G|----------------------------6---6-|
D|------------------------------4---|
A|--4xxxx-4xxxx-4xxxx-4xxxx-4-------|
E|----------------------------------|

G|--------------------6-----|
D|----------2-------6---6---|
A|--4-4-4-4---4-4-4---------|
E|--------------------------|


Warm outro/guitar solo:

Listen to the timing, it can be tricky

The basis are these two riffs:


G|---------------------------|
D|----------2-----------2----|
A|--4-4-4-4---4-----2-4---4--|
E|--------------2-4----------|

G|--------------------------------4-6---|
D|----------2---------------2-4/6-------|
A|--4-4-4-4---4-4-4-----2-4-------------|
E|------------------2-4-----------------|

End!

Please rate and check out my other tabs!


| /  slide up
| \  slide down
| h  hammer-on
| p  pull-off
| ~  vibrato
| +  harmonic
| x  Mute note
===============================================================================
            
Hard to play? Try these video lessons and learn fast. | Correct




comments powered by Disqus
↑ Back to top | Tablatures and chords are parodies/interpretations of the original songs. You may use it for private study, scholarship, research or language learning purposes only