» » »

Cage The Elephant, Live By The Day Tabs (ver.1)

Artists:  A B C D E F G H I J K L M N O P Q R S T U V W X Y Z # 

Live By The Day Tabs (ver.1)

Cage The Elephant Tabs
 Rating:
4/5 (4 votes)
Live By The Day lessons Tabs too difficult? Try these video lessons and learn fast
1
                Live for the Day
 


Perfect Confusion (Cage the Elephant)
Perfect Confusion
Intro:

e|--x-x-x----------------------------------| 
B|--x-x-x----------------------------------|
G|--x-x-x--------------------------5-5-----|x1
D|--x-x-x-3-5-5-3-5-5-------55-5-5-5-5-5---|
A|--x-x-x-3-5-5-3-5-5-------33-5-5-3-3-5---|
E|--x-x-x-1-3-3-1-3-3-------33-3-3-----3---|

Verse:

e|---------------------------| 
B|---------------------------|
G|--------5-5-3--------------|
D|-55-5-5-5-5-3-5------------|x4
A|-53-5-5-3-3-1-5------------|
E|-33-3-3-------3------------|
Chorus:

e|------xxx-xxx-------xxx-xxx--------xxx-xxx--------xxx-xxx--------xxx-xxx----------| 
B|------xxx-xxx-------xxx-xxx--------xxx-xxx--------xxx-xxx--------xxx-xxx----------|
G|------xxx-xxx-------xxx-xxx-5-3-5--xxx-xxx-7-5-7--xxx-xxx-7-5-7--xxx-xxx-7/3------|
D|5-3-5-xxx-xxx-7-5-7-xxx-xxx-5-3-5--xxx-xxx-7-5-7--xxx-xxx-7-5-7--xxx-xxx-7/3------|
A|5-3-5-xxx-xxx-7-5-7-xxx-xxx-3-1-3--xxx-xxx-5-3-5--xxx-xxx-5-3-5--xxx-xxx-5/1------|
E|3-1-3-xxx-xxx-5-3-5-xxx-xxx--------xxx-xxx--------xxx-xxx--------xxx-xxx----------|

Solo:

e|------------------------------------------------------------------------| 
B|--------------9-11-11p-11p-10-9-----------------------------------------|
G|------------8--------------------10h11p8-8------------------------8-----|
D|-6h7p5-7-5---------------------------------11-9-10h11p8-8-8-11v-11------|
A|------------------------------------------------------------------------|
E|------------------------------------------------------------------------|

Verse

Chorus

Solo 2:

e|------------------------------------------------------------------------------| 
B|--121212121212/9--------------------------------------------------------------|
G|----------------------12-12-12-12-12/9----------------------------------------|
D|------------------------------------------------11p9-11p9-----------------11-9|
A|----------------------------------------10h11p9-11p9-11p9-11----------9-11----|
E|----------------------------------------------------------11-10h11h12---------|



e|----------------------------------------------------------------------------------| 
B|-1212121212-12p11p10-9-1212121212-12p11p10-11p10p9--------------------------------|
G|---------------------------------------------------11p10p9-12---------------------|
D|---------------------------------------------------------------------11-9---------|
A|---------------------------------------------------------------9/10---------------|
E|----------------------------------------------------------------------------------|

e|--------------15----------| 
B|--------------------------|
G|--------------------------|
D|-10h11p9-11p9-------------|
A|--------------------------|
E|--------------------------|

Verse

No Guitar During Bridge (Chorus)

Chorus
            
Submit corrections

comments powered by Disqus
↑ Back to top | Cage The Elephant Tabs for Live By The Day. Lyrics for acoustic guitar and electric guitar. 1 Tablatures and chords are parodies/interpretations of the original songs. You may use it for private study, scholarship, research or language learning purposes only