» » »

Jamies Institution Bass tabs (ver.1)

Artists:  A B C D E F G H I J K L M N O P Q R S T U V W X Y Z # 

Jamies Institution Bass tabs (ver.1)

Cage The Elephant
Rating:
0/5 (0 votes)

Hard to play? Try these video lessons and learn fast.
                So yep, again Perfect Confusion song who are now Cage. 
Figured this out by ear...

Be ready in the intro, as you know, it starts straight up :P
 
Intro/Verse/Chorus
      .
E|--6~6--6------|
A|--------66-6~-|
D|--------------|x12
G|--------------|

Pre - Chorus
                   . . .
E|-6\---6\---6\----6-6-6------|
A|-----6----6-------------86--|
D|----------------------86----|
G|----------------------------|

Chorus (as seen up top guys)-x4

Verse -x8

Pre-Chorus 

Chorus -4

Bass Solo (some parts may be wrong, i just do my own thing really)

E|-----------------------------------------|
A|---.----------6h8h6--.---------6h8h6-4~--|
D|---88-8-6-8h6--------88--6h8h6-----------|
G|-----6-----------------6-----------------|
    .
E|--66-46------------------------------|
A|-------44----86-8-8-8-8----8-8-------|
D|-----------86----6-6-6-68-8-6--------|
G|-------------------------6-----------|

Guitar solo (play verse)- x4
Verse -x8

Pre - Chorus

End Chorus
                             1st time   2nd time
E|--66-6------66-64--------|66-6------|--6----6~--|
A|------6-8-6------68------|------86--|------8----|
D|-------------------------|----86----|----86-----|
G|-------------------------|----------|-----------|
            
Hard to play? Try these video lessons and learn fast. | Correct




comments powered by Disqus
↑ Back to top | Tablatures and chords are parodies/interpretations of the original songs. You may use it for private study, scholarship, research or language learning purposes only