» » »

Cage The Elephant, In One Ear Tabs (ver.5)

Artists:  A B C D E F G H I J K L M N O P Q R S T U V W X Y Z # 

In One Ear Tabs (ver.5)

Cage The Elephant Tabs
 Rating:
4/5 (4 votes)
In One Ear lessons Tabs too difficult? Try these video lessons and learn fast
                I know it's not exactly how Lincoln plays it but it sounds good with the song

E|---------|
B|---------|
G|---------|
D|--4--4~--|  x3
A|--4--4~--|
E|--2--2~--|

E|--------|
B|--5--7~-|
G|--------|
D|--------| x2
A|--------|
E|--------|

riff
E|--------5--7b/-7--7--7--7b\--7--7--7--7--5--------|
B|--5--7--------------------------------------7--5--|
G|--------------------------------------------------|
D|--------------------------------------------------| x3
A|--------------------------------------------------|
E|--------------------------------------------------|


E|--------5-----7b/--7--7--7--7b\--7--7--7--7--7--7--5---------|
B|--5--7-----7--------------------------------------7--5-------|
G|-------------------------------------------------------------|
D|-------------------------------------------------------------|
A|-------------------------------------------------------------|
E|-------------------------------------------------------------|

E|-----------------------------------------------------------------|
B|-----------------------------------------------------------------|
G|-----------------------------------------------------------------|
D|--4--4--4--4--7--4--4--4--4--9--4--4--4--4--7--9--9--9--9--9--7--|
A|--4--4--4--4--7--4--4--4--4--9--4--4--4--4--7--9--9--9--9--9--7--|
E|--2--2--2--2--5--2--2--2--2--7--2--2--2--2--5--7--7--7--7--7--5--|
these are played through out the whole song thanks!

Key
~  vibrato
b/  bend
b\ bend back
            
Submit corrections

comments powered by Disqus
↑ Back to top | Cage The Elephant Tabs for In One Ear. Lyrics for acoustic guitar and electric guitar. Tablatures and chords are parodies/interpretations of the original songs. You may use it for private study, scholarship, research or language learning purposes only